--
.



* PÁGINAS Y AGENDAS

 
News - Noticias -todo sobre Radiohead


The King of Limbs


Radiohead en Paris 10 junio 2008 - Fotos por Laurence Boisnard


'In Rainbows',número uno en UK 
RADIOHEAD - In Rainbows (Disc 2) por Juan Gallardo Comentario
Los maravillosos colores del arco iris
por Juan Gallardo - IndyRock # 


AMNESIAC, letras, datos
KID A | letras |comentarios
Hail to the thief , LETRAS EN ESPAÑOL

Daydream Festival en Barcelona Fotos directo +"Off Computer" /12 /6 /08
Radiohead en el Foro del Sol / México
Crónica de un concierto muy esperado Por Alejandra Hidalgo
Radiohead en Río de Janeiro / Brasil
Radiohead abre el Quilmes / Argentina
28,000 personas ven a Radiohead en Chile
Galerías >100


Fotos directo giras
1994 / 1997 / 1998 / 2000 /2001 / 2002

Radiohead en  México /  Brazil / Argentina 
.
Radiohead * Tabs
Tabs para guitarra por DANIEL RODRÍGUEZ (Mexico) Especial para IndyRock

NOTAS
Tono de Do= C 
Tono de La= A 
Tono de Sol= G 
Tono de Mi= E 
Tono de Re= D 
Tono de Si= B 
Tono de Fa= F 

Tono de Si= B
TEMAS CON TABS EN ESTA PÁGINA
  • Bones
  • Fake plastic trees
  • Lucky
  • The tourist
  • Exit music (for a film)

  •  

     
     
     
     
     

     


    Algunas canciones en versión simple:
    CREEP
    Sol M, Si (7º traste), Do M (8º traste), Do m (8º traste)
    ..................
    STOP WHISPERING
    Re M, Sol M
    ..................
    FAKE PLASTIC TREES
    La M, Fa m, Re M, Mi M, Si M
    ..................
    HIGH AND DRY
    Fa m, La M, Mi M
    ..................
    THINKING ABOUT YOU
    Sol M, Mi M, Re M, Do M
    ..................
    FAITHLESS THE WONDER BOY 
    ReM SolM LaM ReM Mim SolM  Sim LaM SolM Fa# m Mim SolM 
    TABS

    Bones 
    the bends
    transcrita por Daniel Rodríguez
    ...
    D G D/F# Asus4 {then repeat hitting the
    I don't want to be cripple cracked high e string} 
    i.e. 
    highe------0-----0-----0-----0-----0------0------0-
    B--------------------------------------------------
    G--------------------------------------------------
    D--------------------------------------------------
    A--------------------------------------------------
    lowE-----------------------------------------------
    D G D/F# Asus4 
    Shoulders, wrists, knees and back 
    D G D/F# Asus4 
    Ground to a dust and ash
    D G D/F# Asus4 
    Crawling on all fours.
    ...
    Chorus:
    Em D/F# G2 A A Bm/A A Bm/A A Bm/A etc.
    When you've got to feel it in your bones x2
    ...
    I don't want to be cripple cracked
    Shoulders, wrists, knees and back
    Ground to a dust and ash
    Crawling on all fours
    When you've got to feel it in your bones x2
    Now that I can't climb the stairs
    pieces missing everywhere
    Prozak Painkillers
    When you've got to feel it in your bones x2
    I used to fly like peter pan
    All the children flew and I touched their hands
    ...
    Chords: 
    D :xx0323 
    G :320033 
    D/F#: 200230
    A :x02220 
    Bm/A: x04420 
    Asus4 :x02230
    Em :022000 
    G2 :355433
    ....
    ..
    Exit music for a film
    transcrita por Daniel Rodriguez
    ojo capodrasto (cejilla) en el segundo traste
    Capo on 2nd fret.
     
    Chords:
    Am: 002210
    Asus2:002200
    Asus4:002230
    E: 022100
    D/F#: 2x023x
    D/F: 1x023x
    A: 002220
    Gm: 355333
    B: x2444x
    F: 1332xx
    Bb: x1333x
    Em: 022000
    G5: 3200XX
    Dsus2: x00230
    ---
    Introdución
    x2 
    Am Asus2 Asus4
    e------------------------------------------
    B---1--1--1--1-----1--1--1--0-0-3-3-
    G---2--2--2--2-----2--2--2--2-2-2-2-
    D---2--2--2--2-----2--2--2--2-2-2-2-
    A-0-------------0------------------------
    E-0-------------0------------------------
    Am E
    Wake, from your sleep,
    G5 D/F#
    The drying of your tears,
    Am E Asus4 A
    Today, we escape, we escape.
    Am E
    Pack and get dressed,
    G5 D/F# D/F
    Before your father hears us,
    Am E Asus4 A
    Before all hell breaks loose.
    Gm F#m
    Breathe, keep breathing,
    Asus2 Am Asus2 Asus4 Am E
    Don't lose, your nerve
    Gm F#m 
    Breathe, keep breathing,
    Asus2 Am Asus2 Asus4 Am E Em
    I can't do this alone.
    Am E
    Sing us a song.
    G5 Dsus2
    A song to keep us warm,
    Am E Asus4 A
    There's such a chill, such a chill...
    Am B
    And you can laugh 
    E F5
    A spineless laugh
    F5 Bb E
    We hope your rules and wisdom choke you.
    Am E
    And now we are one 
    G5 D/F# D/F
    In everlasting peace
    Am E Asus4 A
    We hope that you choke that you choke.
    Am E Asus4 A
    We hope that you choke that you choke.
    Am E Asus4 A
    We hope that you choke that you choke.
     ...
    ...
    Fake plastic trees
    the bends
    transcrita por daniel rodriguez
     ...
    A Asus4 Dmaj9/F#
    Her green plastic watering can
    E6 Dsus2
    For her fake chinese rubberplant
    A Dsus2
    In fake plastic earth
    A Asus4 Dmaj9/F#
    That she bought from a rubberman
    E6 Dsus2
    In a town full of rubber plans
    A Dsus2
    To get rid of itself
    Bm11
    It wears her out
    A
    It wears her out
    It wears her out
    It wears her out
    She lives with a broken man
    A cracked polysterene man
    Who just crumbles and burns
    He used to do surgery
    For girls in the eighties
    But gravity always wins and
    It wears him out (4x)
    She looks like the real thing
    She tastes like the real thing
    My fake plastic love
    But I can't help the feeling
    I could blow through the ceiling
    If I just turn and run
    It wears me out (4x)
    Bm11
    If I could be who you wanted
    A
    If I could be who you wanted 
    A6 Bm11
    All the time
    A A6 |Bm11|Bm11| A |A,E6|Bm11|Bm11| A | 
    All the time, ah ah ah
     
    1 2 3 4
    e--------0--0-0-----0--0-0-----------------------------------------------------------------------
    B--------2--2-2-----2--2-2----------------------------------------------------------------------
    G----2---2--2-2-2---2--2-2---------------------------------------------------------------------
    D----2---2--2-2-2---2--2-2---ETC.-----------------------------------------------------------
    A----0----0---|------------------------------------------------------------------------------------
    E---------------------------------------------------------------------------------------------------
    tercer verso
    e--------------------------------------------------------------------------------------------------
    B----------------------2-3-2-----------------------------------------------------------------------
    G--2--------------------------2---6---6-6-6-6-6--6------6----6---6----7---9----11-11-
    D--2-----------------------------------------------------------------------------------------------
    A--0-----------------------------------------------------------------------------------------------
    E---------------------------------------------------------------------------------------------------
    She looks like the real thing She tastes like the real 
    thing My
    e----------------------------------------------------------------------------------------------------
    B--------------------------------------------9-9h10-12-----------------------------------------
    G-2-2-2-4-4-6-6-6-6-6-6-6-7-----9--9-9-11-11-----------2-----------------------------
    D------------------------------------------------------2--------------------------------------------
    A------------------------------------------------------0--------------------------------------------
    E----------------------------------------------------------------------------------------------------
    plastic love. etc.
    CHORD: 
    A:x02220
    Dmaj9/F#:200220
    E:022100
    D:X00230
    Bm11:x20230
    A6:x02120
     ....
    ...
    Lucky 
    OK COMPUTER
    transcrita por Daniel Rodríguez
    ...
    Introdución:
    Em Am G Bm
    I'm on a roll, I'm on a roll
    Bm
    E:-2-----2-0-:
    B:-3---------:
    G:-4---4-----:
    D:-4-4-------:
    A:-2---------:
    E:-----------:
    Em
    ....this time
    C G Bm Em
    I feel my luck could change.
    Kill me straight out,
    Kill me again....with love.
    It's gonna be a glorious day.
    A Asus2 Em
    Pull me ou - t of the aircrash,
    A Asus2 Em
    Pull me ou - t of the wreck,
    A Asus2 Em
    Cause I'm your su - perhero,
    ...
    Ponle un poco de delay 
    E:-------------------------------------:
    B:--14-14b16b14-12---------------------:
    G:-----------------14-12----12----12---:
    D:-----------------------14----14------:
    A:-------------------------------------:
    E:-------------------------------------:
    E:-----------------------15-14-12------:
    B:--14-14b16b14-12---------------------:
    G:-----------------14-12---------------:
    D:-------------------------------------:
    A:-------------------------------------:
    E:-------------------------------------:
    E:-------------------------------------:
    B:--14-14b16b14-12---------------------:
    G:-----------------14-12---------------:
    D:-----------------------14-12---------:
    A:-----------------------------14-12---:
    E:-------------------------------------:
    Leave you standing on the edge...
    C7 B7
    E:-----------------0----:
    B:--------1--------0----:
    G:------3----------2----:
    D:----2------------1----:
    A:--3--------------2----:
    E:----------------------:
    Em Em(F#) Em
    Another state has called for me by name.
    But I dont have time for them
    Its gonna be a glorius day
    I feel my luck could change
     
    E:----0-0-0-0-0---0---0-0-----------0---:
    B:----7-7-7-7-7---5---3-1-----------0---:
    G:----0-0-0-0-0---0---0-0-----------0---:
    D:----x-x-x-x-x---x---x-x-----------2---:
    A:----9-9-9-9-9---7---5-3-----------2---:
    E:--0---------------------2-2-2-3-2-0---:
    E:--0-0-0-0-0---0---0-0-----------0---:
    B:--7-7-7-7-7---5---3-1-----------0---:
    G:--0-0-0-0-0---0---0-0-----------0---:
    D:--x-x-x-x-x---x---x-x-----------2---:
    A:--9-9-9-9-9---7---5-3-----------2---:
    E:----------------------2-2-2-3-2-0---:
    E:--0-0-0-0-0---0---0-0-----------0---:
    B:--7-7-7-7-7---5---3-1-----------0---:
    G:--0-0-0-0-0---0---0-0-----------0---:
    D:--x-x-x-x-x---x---x-x-----------2---:
    A:--9-9-9-9-9---7---5-3-----------2---:
    E:----------------------2-2-2-3-2-0---:
    Em
    E:----0-0---------0-------0------0--0----------:
    B:--3/5-5-5--3/5-5-5--3/5-5-5-5-5-5-5-5-8-5-8--:
    G:---------------------------------------------:
    D:---------------------------------------------:
    A:---------------------------------------------:
    E:---------------------------------------------:
    E:-------------------------------------:
    B:--14-14b16b14-12---------------------:
    G:-----------------14-12----12----12---:
    D:-----------------------14----14------:
    A:-------------------------------------:
    E:-------------------------------------:
    E:-----------------------15-14-12------:
    B:--14-14b16b14-12---------------------:
    G:-----------------14-12---------------:
    D:-------------------------------------:
    A:-------------------------------------:
    E:-------------------------------------:
    se repite el requinto hasta el final......
    ...
    The tourist
    del album OK COMPUTER
    Transcrita por Daniel Rodriguez
    ...
    Chords: 
    B/e:799800
    F#m:244222
    A:577655
    G#:466544 
    Am:x77500
    ...
    ...
    B/e F#m A G#
    It barks at no-one else but me like it is seen a ghost
    B/e F#m A G#
    I guess it seen the sparks a-flowin, no one else would know
    CHORUS
    B/e F#m Am
    Hey man slow down, slow down
    B/e F#m A
    Sometimes i get over charged that , when
    G# B/e F#m 
    you see sparks. they ask where the hell i am going
    A G# 
    at 1000 feet per second
    B/e F#m Am
    Idiot slow down, slow down
    ...
    You can lead on F#m pentatonic
    algun comentario
    G# 
    -4------------------
    -4------------------
    -5----7---5---------
    - -6---4---6------- 
    -6--6---6------------
    -4-4---4-------------

     



    VÍDEOS DE DIRECTOS
    Archivo histórico de IndyRock Magazine



    News - Noticias -todo sobre Radiohead
    GALERÍA DE FOTOS * RADIOHEAD * DIRECTOS
    TEMAS CON TABS en IndyRock * Radiohead

    .


    --
     
    Copyright IndyRock ©
    TODOS LOS DERECHOS RESERVADOS:
    Queda prohibida la reproducción, distribución, puesta a disposición, comunicación pública y utilización total o parcial, de los contenidos de esta web...
    Leer más y Política de privacidad
     
    Contenidos informativos
    Agenda de conciertos
    Concursos
    Noticias
    Productoras
    Tablón de anuncios... y + Más

    Revista electrónica creada en 1997
    Home * Portada
    Servicios publicitarios
    Créditos | Qué es IndyRock
    info@indyrock.es

    Naturaleza  y divulgación científica
    waste.ideal.es
    Dirección y edición
    waste@diarioideal.es