--
.



* PÁGINAS Y AGENDAS

 
News - Noticias -todo sobre Radiohead


The King of Limbs


Radiohead en Paris 10 junio 2008 - Fotos por Laurence Boisnard


'In Rainbows',número uno en UK 
RADIOHEAD - In Rainbows (Disc 2) por Juan Gallardo Comentario
Los maravillosos colores del arco iris
por Juan Gallardo - IndyRock # 


AMNESIAC, letras, datos
KID A | letras |comentarios
Hail to the thief , LETRAS EN ESPAÑOL

Daydream Festival en Barcelona Fotos directo +"Off Computer" /12 /6 /08
Radiohead en el Foro del Sol / México
Crónica de un concierto muy esperado Por Alejandra Hidalgo
Radiohead en Río de Janeiro / Brasil
Radiohead abre el Quilmes / Argentina
28,000 personas ven a Radiohead en Chile
Galerías >100


Fotos directo giras
1994 / 1997 / 1998 / 2000 /2001 / 2002

Radiohead en  México /  Brazil / Argentina 
.
Radiohead * Tabs
* Tabs para guitarra por DANIEL RODRÍGUEZ (Mexico) Especial para IndyRock
NOTAS
Tono de Do= C 
Tono de La= A 
Tono de Sol= G 
Tono de Mi= E 
Tono de Re= D 
Tono de Si= B 
Tono de Fa= F 

Tono de Si= B
TEMAS CON TABS EN ESTA PÁGINA
  • Paranoid Android
  • Let Down
  • Climbing Up The Walls
  • Electioneering

  •  

     
     
     

     


    TABS

     
    Paranoid Android
    Transcrita por Daniel Rodriguez(Quena284@hotmail.com)
    Acordes:
    C :8(10)(10)988
    Csus4:8(10)(10)(10)88
    Ab :466544
    Bb :688766
    B :799877
    A :577655
    Bb6add4:60088x
    Cm :8xx88x
    F9 :x8088x
    Em7b5:0x2330
    Gm :355330
    Gmadd6:3xx330
    Fmajadd6:1xx230
    E7 :022130
     
    Bueno la guitarra 1 (TOM) la guitarra # 2(BEN)
    y la guitarra # 3(JON) ; Esta tablatura es algo
    larga pero al final de leerla toda estaras
    satisfecho todos los acordes son correctos
    muy importante utilizar los efectos adecuados
    y otra cosa si quieres igualar el sonido consigete
    una Gibson les paul...(Es broma)
    Guitarra 1
    Electroacustica:
    Cm Bb6add4 F9
    --------------------------------------------------------------
    ------8--------------8---------8-----------------------------
    ----------8----------8--8-----------8---8----8---8----8----
    -----------------0--------------------------------------------
    -------------0------------0--8------------0-----0--------0--
    --8----8---8----6--6---6----------------------------6-------
     
    Gm Em7b5
    ---------------------------------------------------0---0---0------
    --3---3----------------3---------3--3---3---3------3---3---3--
    ----------3-----3---3--3-----3---3----3-----2--0---0---0---0-
    -----------------------------0---2----------------------------0---
    -------------------0--0----1--------------------------------------
    --3------3---3----------------------------------------------------
    Guitarra 2
    Con flanger:
    Em7b5
    -----------------------------------------------
    -----------------------------------------------
    -15--15------15---15-------15--------15--
    ---15---15-15---15---14-14----12-12----
    ------------------------------------------------
    -----------------------------------------------
    Guitarra 1
    Gm Em7b5
    ----------------------------------------------0--0--------
    -----3-----------------3---------3--3-3-3-----3--3-----
    ---------3---3--3---3--3----3-3--3--3---2---0-0--0---
    ---0--------------------------0--2------------------------
    ---------------0--0---0---1-------------------------------
    -3-----3---3---------------------------------------------- 
    Guitarra 2 
    Em7b5
    -------------------------------
    3--3------3---3-----3------3-
    --3---3-3---3---2-2----0-0--
    -------------------------------
    -------------------------------
    -------------------------------
    despues la parte del semicoro
    Guitarra 1 
    Gmadd6 Fmaj7add6 E7 x2 Cm
    --0-------0---------0-------0----------0--------0--------------
    ----3---3---3---------3---3---3----------3---3----3-----------
    -3----3-------3---2-----2-------2----1-----1---------1--------
    -------------------------------------------------------------------
    -------------------------------------------------------------------
    3----------------1------------------0-----------------10--9-8-- 
    Guitarra 2
    Gmadd6 Fmaj7add6 E7 X2
    --1p0-----1p0-------1p0-----1p0--------1p0-------1p0-----------
    ------3--3----3---------3--3-----3-----------3-------3-------3------
    -3------3-------3---2-----2-------2----1-----1---------1------------
    -------------------------------------------------------------------------
    -------------------------------------------------------------------------
    3----------------1------------------0----------------------------------
     
    Guitarra 3
    Gmadd6
    --------12----------12---------
    -----15----15----15----15----
    --15----------15----------15--
    --------------------------------
    --------------------------------
    --------------------------------
    What's that?
    Fmajadd6 E7
    ------12----------12-------------12----------12-------------------
    ---15----15----15----15-------15----15----15----15-------15--
    14----------14----------14-13----------13----------13-15-------
    ----------------------------------------------------------------------
    ----------------------------------------------------------------------
    -----------------------------------------------------------------------
    Riff 1
    ambition makes you look very ugly...
    ---------------------------------------------------------------------
    ---------------------------------------------------------------------
    ---------------------------------------------------------------------
    ---------------------------------------------------------------------
    ---------3---------3--3-5-5---------3----------5--3--0-5--x--3-
    ---5-5-5---5-4-4-4-----------5-5-5----5--5--4------------------
    y luego esto...
    Riff 2 x3
    C Csus4 Ab Bb F C Csus4 C B Bb A Ab
    8----8---4---6----x---|---8---8-------------------------- 
    8----8---4---6----x---|---8---8--------------------------
    9---10---5---7---10--|---9---10-------------------------
    10--10---6---8---10- |--10--10--------------------------
    10--10---6---8---8---|--10--10--------------------------
    8---8----4---6--------|---8---8----8--7--6--5--4--------
    Otra vez esto pero con distorsi¢n
    Why dont you donït remember my name...
    ---------------------------------------------------------------------
    ----------------------------------------------------------------------
    ----------------------------------------------------------------------
    ---------------------------------------------------------------------
    ---------3---------3--3-5-5---------3----------5--3--0-5--x--3-
    ---5-5-5---5-4-4-4-----------5-5-5----5--5--4------------------
    Solo:
    8va §§§§§§§§§§§§§§§§§§§§§§§§§§§§§§§§§§§§§§§§§§§§§§§§§§§§§§§§§
    --20-20-20-20-20--20-20-20-20-20---20---20---20---20---20---20-
    22--------------22--------------22----22---22---22---22---22------------
    ---------------------------------------------------------------------------------
    ---------------------------------------------------------------------------------
    ---------------------------------------------------------------------------------
    ---------------------------------------------------------------------------------
    8va§§§§§§§§§§§§§§§§§§§§§§§§§§§§§§§§§§§§§§§§§§§§§§§§§§§§§§§§§§§§§§§
    -----20-----20--20------20------20----20----20--0-------20----20-----
    --------22b--------22b-------22b----------22-------22-22----22----22-
    --22--------------------------------22--------22----------------------------
    --------------------------------------------------------------------------------
    --------------------------------------------------------------------------------
    --------------------------------------------------------------------------------
    C Csus4 Ab Bb F C Cusu4 Ab Bb F
    ---------------------------------------------------------------------------
    -8-10--10-10-8-0-9-11-11--9-0-8-10-10-8--0-7h9-5h7-3p0----
    ----------------------------------------------------------------------------
    ----------------------------------------------------------------------------
    -----------------------------------------------------------------------------
    -----------------------------------------------------------------------------
    C Csus4 Ab Bb F C Csus4 C B Bb A Ab FI
    -----------------------------------------------------------------x-------
    -8-10-10--8-0-9-11--11--9-0-8-10-10-10-8-0-9-8--7\-x-------
    -----------------------------------------------------------------x-------
    -----------------------------------------------------------------x-------
    -----------------------------------------------------------------x-------
    -----------------------------------------------------------------x-------
    FI 
    -----------------------
    -----------------------
    ---2-------------------
    ---3-------------------
    ---3-------------------
    ---1-------------------
    Baja a 66 el tiempo
    CHORDS:
    EADGBe
    Cm : xx(10)888 
    G : xx9787
    Bb : 688766
    A : 577655
    Dm : xx7765
    Gm : xx8786
    GmI : 355333
    Fv : xx7565
    FI : 133211
    E : 022100
     
     
    Cm G Gm A Dm A Dm Fv 
    Bb Fv GmI FI E A
    Cm G Gm A Dm A Dm Fv
    .....Rain down , rain down, come on rain down on me
    Bb Fv GmI FI E A
    from a great height, from a great height, height
    E E 
    .......god loves his children, god loves his children yeah!
     
    Guitarra 1 y 2
    ---------------------------------------------------------------------
    ---------------------------------------------------------------------
    ---------------------------------------------------------------------
    ---------------------------------------------------------------------
    ---------3---------3--3-5-5---------3----------5--3--0-5--x--3-
    ---5-5-5---5-4-4-4-----------5-5-5----5--5--4------------------
    Guitarra 3
    ----------------------------------------------------------------------
    -----------------5---------------------------------8/3-0-------------
    ------5------------5-7-7-5-7-7--7b-7b---7---7----7-----0-------
    -7-7-7--7-6--6-6---------------------------------------------------
    -----------------------------------------------------------------------
    ------------------------------------------------------------------------
     
    Guitarra 1 y 2
    -----------------------------
    -----------------------------
    -----------------------------
    -----------------------------
    --------3------------3---5/-
    --5-5-5---5-4--4--4--------
    Guitarra 3
    -------------------------------
    -------------------------------
    ------5---5----5----5----x-x-
    7-7-7---7-6--6-6-6--6--6---
    -------------------------------
    -------------------------------
     
    En esta parte lleva un poco de tremolo y phaser
    C Csus4 Ab Bb F C Csus4 Ab Bb F
    --10-------------------------------10-----------------------------
    ---------------10-----------------------------10------------------
    -----8----x-x-----------10-------------8--x-x----------10------
    ------------------8--x----------------------------8-x--------------
    ----------------------------8--x---------------------------8-------
    --------------------------------------------------------------------
     
    C Csus4 Ab Bb F C Csus4 Ab Bb 
    F
    -10----------------------------10--------0--8b---7b---6b--5b--8b--
    -------------10----------------------------11b--10b---9b--8b--11b-
    -----8b------10---------10---------8b---------------------------------
    -----------------8--------------------------------------------------------
    ---------------------------8----------------------------------------------
    --------------------------------------------------------------------------
     
    Riff 1
    -8--11b---10b---8b-------------8---------------------------------------------
    11--14b---13b---11b---6b----11b-----11---11--11---11---11b----11---
    -/--------------------8b-------------/-------------------------------------------
    -/-----------------------------------/--------------------------------------------
    ----------------------------------------------------------------------------------
    ----------------------------------------------------------------------------------
    Riff 1
    -8b--11b--10b--8b-------8b--10b-10b-12b---13----15b----------------
    11b--14b--13b-11b------11b--13b-13b-15b-x-16-17-18b-------------
    -------------------6-------------------------------------------------------------
    ---------------------------------------------------------------------------------
    ---------------------0-------------------------------0--------------------------
    ---------------------------------------------------------------------------------
    C Csus4 Ab Bb F C Csus4 Ab Bb F C Csus4 Ab Bb F
    ------------------------------------10-8-10p8--------------------------------
    10---8-------10---------10-8-8----------------10---8-------10-0----------
    -------x--------0-10bp8--------------------------x--------------10p8------
    ---0-----8h10------------------8h10-------------------8h10---------------
    --------------------------------------------------------------------------------
    --------------------------------------------------------------------------------
     
     
     
    C B Csus4 C Bb Ab
    --------------------------------------
    -10-8-8-8\-------5--4---3----------
    ------------5--3-----------5---------
    --------------------------------------
    --------------------------------------
    --------------------------------------
    Eso es todo... 
    creanme que es muy buena tomense su tiempo
    ...........
    Let Down 
    Transcrita por Daniel Rodr¡guez
     
    Originalmente esta canci¢n lleva capotraste en el 7mo traste
    (la vi en vivo en nueva york) pero la tabule sin capo por que
    es un poco m s complicado. 
    Acordes usados en orden: A E F#m E
     
    Delay,tremolo limpio
    ----------5----------0---------4----------0---- se repite
    ---3----3-----3----3-----3---3-----3---3-------
    -6----6-----6 ---6-----6---6-----6---6---------
    -------------------------------------------------
    -------------------------------------------------
    -------------------------------------------------
     
    ---------------------------------------------------------
    ----3---3---3-3----3----3-3----3---3-3----3----3-3--- etc.
    ------6---6------6----6------6---6------6----6--------
    ---------------------------------------------------------
    ---------------------------------------------------------
    ---------------------------------------------------------
     
     
    -5-4-0-----
    -------0---
    -----------
    -----------
    -----------
    -----------
     
    D A
    -------------------------------------------5-4-0----
    -----3---3-2-0-0-0h2-2-0--------3----3--------3--
    ----2--2-------------------2----6----6------6------
    ---0-------------------------------------------------
    -----------------------------------------------------
    -----------------------------------------------------
     
    -------------------------------0-----------------
    ------------------------------0------------------
    ---7-6-4-6-4-2---4---2----1--------------------
    --7------------------------2---------------------
    --------------------------2----------------------
    -------------------------0-----------------------
     
     
     
     
    -------0---------5--------0---------4----------0--
    ---3--------3--------3---------3---------3-------- repite *
    -6---6---*6---6----6---6-----6----6----6----6--- 
    ---------------------------------------------------
    ---------------------------------------------------
    ---------------------------------------------------
     
    Intermedio
    ED.
    A
    -----------5-----5-------------------5----5---9-------
    5/--7/--9-----9-----9---5/--7/--9/-----9----9--9------
    --------------9------9------------------9----9---------
    --------------------------------------------------------
    --------------------------------------------------------
    --------------------------------------------------------
     
     
    J.G
    A
    --------------------5-4-0--------5-4-0-----------------
    ----3---3---3-3----3----3-3----3---3-3----3----3-3--- etc.
    ------6---6------6----6------6---6------6----6---------
    ---------------------------------------------------------
    ---------------------------------------------------------
    ---------------------------------------------------------
     
     
    You know....
    A
    ---9------9-----------
    -----9------9---------
    -------9------9-------
    -----------------------
    -----------------------
    -----------------------
    J.G.
    -------0---------5--------0---------4----------0-
    ---3--------3--------3---------3---------3------- repite*
    -6---6---*6---6----6---6-----6----6----6----6-- 
    ---------------------------------------------------
    ---------------------------------------------------
    ---------------------------------------------------
     
     
    Termina
    Tom
    A
    -----------------------------------------0--
    ------5-------------------5------------5----
    -----6--7h6---6-7h6----6---7h6-----6-----
    ----7--------7----------7-----------7-------
    ---0---------0---------0----------0---------
    ---------------------------------------------
    .....
    Climbing Up The Walls
    Por Daniel Rodriguez Quena284@hotmail.com
    Introduci¢n
    ----------------------------------------------------------
    ----------------------------------------------------------
    ---0---0------------------------0-0----------------------
    ---4--4---0---0---2------------4-4---0----0----2-------
    ---2--2---5---5---2------------2-2---5----5----2-------
    -----------3--3---0---3-3/-5----------3---3----0-------
     
    Verse:
    Bm G Em G
    --------0---------------------------------------------------------------
    --3-----0---------------------------------------------------------------
    --4-----0---------------------------------------------------------------
    --4-----2---------------------------------------------------------------
    --2-----2---------------------------------------------------------------
    -----3--0--3------------------------------------------------------------
     
     
    Coro:
    [--- x2-----------]
    Em 
    --0----------------------------------------------------
    --0----------------------------------------------------
    --0------------------2--------------------2------------
    --2--------4---5----2-----------4----5--2----2-------
    --2---2---4---5----0----2--2---4---5--0----2--------
    --0---0--2---3----------0--0--2---3-------0----------
     
    Riff1 
    x2 
    ----------------------------------------------------
    ----------------------------------------------------
    ----------------------------------------------------
    --12-12-11-11---9-9----9-9--7--7--5--5---2----
    ----------------------------------------------------
    ----------------------------------------------------
     
    -12----14-15------12------
    --12----------12----12-----
    ---12----------12---12-----
    -----------------------------
    -----------------------------
    -----------------------------
     
     
    Al ultimo se escuchan 16 violines...
     
     ... 
    Electioneering
    transcrita por daniel rodriguez
     
     
    Introducion:
    Riff
    La primera cuerda afinala en re 
    d---5-----5----5-------
    b-----6-----6----6-----
    g--7-----7----7----7---
    D-7-----7-----------7--
    A----------------------
    E----------------------
     
     
    Afinaci¢n normal J.G
    Con distor
    ----------------------------------------------------
    ----------------------------------------------------
    --10H12-10---10H12-10----10H12-10----10----
    12---------12---------12----------12-------------
    ----------------------------------------------------
    ----------------------------------------------------
     
    -----------------------10H12P10---------------------------
    --------------------------------10H12----------------------
    --10H12-10---10H12-10------------------10--------------
    12---------12-----------------------------9/10/11/12-------
    -------------------------------------------------------------
    -------------------------------------------------------------
    C Am
    -----------------------0---------
    ----------------1-x---0----------
    ---5-x---5-----2-x---7----------
    ---5-x--5------2-x---7----------
    ---3-x-3-------0-x---5----------
    ----------------------------------
     
     
    D E/D F/D D
    ------------------------------------------------------------
    ------------------------------------------------------------
    --7--9-10-9---7--5-----------------10-9--7--5-----------
    -----------------------7--10-7/-5----------------7---5---3
    -5--7-8--7---5--3-----------------8--7--5--3-------------
    ---------------------5--8--5-/3-----------------5--3---1--
     
    ----------------------------------------------------------------------------------------12b-
    ----------------------------------------------------------------------------------10--12----
    ----------------------------------------------------------------9h10p9h10--12-------------
    -------------------------------------------7--9-10-10p12h10------------------------------
    --------------3--0---5--5-7--8-10h8-10---------------------------------------------------
    1--1--3---5-------3-------------------------------------------------------------------------
     
    Riff
    ----------------------------------------------------
    ----------------------------------------------------
    --10H12-10---10H12-10----10H12-10----10----
    12---------12---------12----------12-------------
    ----------------------------------------------------
    ----------------------------------------------------
     
    -----------------------10H12P10---------------------------
    --------------------------------10H12----------------------
    --10H12-10---10H12-10------------------10--------------
    12---------12-----------------------------9/10/11/12-------
    -------------------------------------------------------------
    -------------------------------------------------------------
     
     
    C Am
    -----------------------0---------
    ----------------1-x---0----------
    ---5-x---5-----2-x---7----------
    ---5-x--5------2-x---7----------
    ---3-x-3-------0-x---5----------
    ----------------------------------
     
    D E/D F/D D
    ------------------------------------------------------------
    ------------------------------------------------------------
    --7--9-10-9---7--5-----------------10-9--7--5-----------
    -----------------------7--10-7/-5----------------7---5---3
    -5--7-8--7---5--3-----------------8--7--5--3-------------
    ---------------------5--8--5-/3-----------------5--3---1--
     
    ----------------------------------------------------------------------------------------12b-
    ----------------------------------------------------------------------------------10--12----
    ----------------------------------------------------------------9h10p9h10--12-------------
    -------------------------------------------7--9-10-10p12h10------------------------------
    --------------3--0---5--5-7--8-10h8-10---------------------------------------------------
    1--1--3---5-------3-------------------------------------------------------------------------
     
     
    -------------------------------------------------
    -------------------------------------------------
    ------------------------7--7--10--12-----------
    --5-5-5--3--5--7--7----------------------------
    -----------------------5-5--8---10---7h8p7h8p7
    -3-3-3-1--3--5--5------------------------0------
     
    Solo:
    A C D
    ---------------------------------------------------------------------------------
    --15-13-12-10-13-12-10-9h10p9-9h10p9-----------------13-12--10--13-12-
    ---------------------------------------------7h9-7h9b--------------------------
    ------------------------------------------------------7h9-----------------------
    ---------------------------------------------------------------------------------
    ---------------------------------------------------------------------------------
     
    -------------12b-----------------------------------------------------------
    ---13b-12b------10-9-8--6--10-9-8b6b--13b-12-b-11-9----3-----------
    ---------------------------------------------------------------2------------
    --------------------------------------------------------------0-------------
    ----------------------------------------------------------------------------
     
    Blow riff
    -2--2-x-2--0---------------------------
    -0--0-x-0--0----2---3------------------
    -0--0-x-0--0----2---2------------------
    -2--2-x-2--2----2---2------------------
    -2--2-x-2--2----0---0------------------
    -0--0-x-0------------------------------
     
    super noize
    --------------------------------
    --------------------------------
    -----13--13-----14--14----------
    --------------------------------
    --11---11--/-12---12------------

    --0----0-----0----0-------------



    VÍDEOS DE DIRECTOS
    Archivo histórico de IndyRock Magazine



    vídeopromoción



    News - Noticias -todo sobre Radiohead
    GALERÍA DE FOTOS * RADIOHEAD * DIRECTOS
    TEMAS CON TABS en IndyRock * Radiohead

    .


    --
     
    Copyright IndyRock ©
    TODOS LOS DERECHOS RESERVADOS:
    Queda prohibida la reproducción, distribución, puesta a disposición, comunicación pública y utilización total o parcial, de los contenidos de esta web...
    Leer más y Política de privacidad
     
    Contenidos informativos
    Agenda de conciertos
    Concursos
    Noticias
    Productoras
    Tablón de anuncios... y + Más

    Revista electrónica creada en 1997
    Home * Portada
    Servicios publicitarios
    Créditos | Qué es IndyRock
    info@indyrock.es

    Naturaleza  y divulgación científica
    waste.ideal.es
    Dirección y edición
    waste@diarioideal.es