--
.



* PÁGINAS Y AGENDAS

 
News - Noticias -todo sobre Radiohead


The King of Limbs


Radiohead en Paris 10 junio 2008 - Fotos por Laurence Boisnard


'In Rainbows',número uno en UK 
RADIOHEAD - In Rainbows (Disc 2) por Juan Gallardo Comentario
Los maravillosos colores del arco iris
por Juan Gallardo - IndyRock # 


AMNESIAC, letras, datos
KID A | letras |comentarios
Hail to the thief , LETRAS EN ESPAÑOL

Daydream Festival en Barcelona Fotos directo +"Off Computer" /12 /6 /08
Radiohead en el Foro del Sol / México
Crónica de un concierto muy esperado Por Alejandra Hidalgo
Radiohead en Río de Janeiro / Brasil
Radiohead abre el Quilmes / Argentina
28,000 personas ven a Radiohead en Chile
Galerías >100


Fotos directo giras
1994 / 1997 / 1998 / 2000 /2001 / 2002

Radiohead en  México /  Brazil / Argentina 
.
Radiohead * Tabs
Tabs para guitarra por DANIEL RODRÍGUEZ (Mexico) Especial para IndyRock
NOTAS
Tono de Do= C 
Tono de La= A 
Tono de Sol= G 
Tono de Mi= E 
Tono de Re= D 
Tono de Si= B 
Tono de Fa= F 

Tono de Si= B
TEMAS CON TABS EN ESTA PÁGINA
  • Airbag
  • Subterraneam homesick alien
  • Karma police
  • No surprises

  •  

     
     
     
     
     
     
     
     
     

     


    TABS
    Airbag
    Transcrita por Daniel Rodriguez
    (Quena284@hotmail.com)
     
     
    Introduci¢n:
    Con distorcion:
    --------------------------------------------------
    -----------------------------------------------0--
    -----------------------------------------------6--
    -----------------------------------------------7--
    -----------------------------------------------0--
    0-1/8-7-9-5-0-1/-8-7-5/9-12-13\8-7-9-5-0-1/8-7----
     
     
     
    In the next world war jacknifed... I am born again..
    ---------------------------------------------------------- x2
    ----0-0------0---0--------0--0--------------0-------------
    ---6-6------8---8--------7--7---------------9p6-6h7p6h7p6-
    --7-7------7---7--------7--7----------------7-------------
    -0-0------0---0--------0--0-----------------0-------0-----
    ----------------------------------------------------------
     
    In an intastella burst i am back to save the universe
    --------------------------------------------------
    ----0---0---0---------0---0----0---0---0-----0----
    ---8---8---8---------7---7----7---7---7-----6-----
    --7---7---7---------7---7----7---7---6-----7------
    -0---0---0---------9---9----7---7---7-----0-------
    --------------------------0------0----------------
     
    Intermedio:
    En esta parte las notas que tienen esta señal ^ significa
    tremolo y delay junto para poder obtener el sonido deseado
    es muy importante ayudarte con teclados y le des atmosfera
    a la canci¢n
    -------------------------------------------------------------
    -------------------------------------------------------------
    -14^14-13^13-11^11--13^13-11-10^10/14p16b14/-7-10p9-6h7p6h7--
    --------------------------------------------7----------------
    -0--0--0---0--0--0--0--0-----0---0---0-----0-------0---------
    -------------------------------------------------------------
     
    repite el inico y termina la canci¢n...
     
     
     
    Subterraneam homesick alien 
    transcrita por Daniel Rodriguez 
    (Quena284@hotmail.com)
     
     
     
     
    Introducion:
    Dm G#
    -5-----------------4--------------------------------------
    -6-6--6h5----------4--------------------------------------
    -7---7---7---------5-5-6h5--------------------------------
    -7--------7--------6--6----6------4----4-----4---/-----3--
    -5-----------------6--------6----5-5--5--5--5--5-/---4--4-
    -------------------4------------5----5-----5-----/--4-----
     
     
    Verso
    -----3---3-3--0--3---3-3-3--
    -0-0-0-0-0-0--0--0---0-0-0--
    -0-0-0-0-0-0--0--0---0-0-0--
    -3-3-3-3-2-2--1--1---0-0-0--
    -2-2-2-2-2-2--2--2---2-2-2--
    -3-3-3-3-3-3--3--3---3-3-3--
     
    esto junto con el verso
    ponle tremolo, delay y phaser
    ---7---7-------------------
    --6---5-----3--1-0h1--0----
    -7---7---------------------
    ---------------------------
    ---------------------------
    ---------------------------
     
    Esta parte va junto con el verso pero hasta la 2da vuelta
    lleva fuzz y phaser 2x
    ------------------------------------------------------------------
    --------12p13-12-------12p13-12--------12p13-12-13/17--15-13-12---
    ------------------------------------------------------------------
    12p14-15----------15-14----------15-13----------------------------
    ------------------------------------------------------------------
    ------------------------------------------------------------------
     
     
     
     
     
    Coro:
    -------------------------------------------------
    -1--1-1-1-1--1------1--1-------------------------
    -2--0---0---0------------------------------------
    ------3---2--0------------------------0-2-3-0----
    --------3-------3-0-0h2-3-0h2-3-0h2-3------------
    -----------------------------3-3-3-3-3-3---------
     
    esto junto con el coro 
    con delay 
    --5---5---5-----------
    -5---5---5------------
    2---2---2-------------
    ----------------------
    ----------------------
    ----------------------
    final:
    Dm G# D
    --------------------------------
    -6---------6-5------------------
    -7-------------7-6-5--6-5-------
    -7-----------------6------6-5-4-
    -5-----------------6----------5-
    -------------------4----------5-
     
    Karma police 
    transcrita por Daniel Rodriguez
    (Quena284@hotmail.com)
     
    ACORDES
    D/F#: 2x0230
    C/B: x20010
    E7: 022130
    Bm: X24432
     
     
    Introduci¢n
    Am D/F# Em G Am F Em G Am D G C C/B Am Bm D
    e--0----0----0-----3---0-------0-----3---0---2--3--0--0--0---2---2-
    B--1----3----0-----0---1---1---0-----0---1---3--3--1--1--1---3---3-
    G--2----2----0-----0---2---2---0-----0---2---2--0--0--0--2---4---2-
    D--2----0----2-----0---2---3---2-----0---2---0--0--2--0--2---4---0-
    A--0---------2-----2---0---3---2-----2---0------2--3--2--0---2-----
    E-------2----0---2-3-----------0---2-3----------3------------------
     
     
     
    Am D/F# Em
    Karma Police
    G Am
    arrest this man
    F Em
    he talks in maths
    G Am
    he buzzes like a fridge
    D G C C/B Am Bm D
    he's like a detuned radio.
     
    Am D/F# Em
    Karma Police
    G Am
    arrest this girl
    F Em
    her hitler hairdo
    G Am
    is making me feel ill
    D G C C/B Am Bm D
    and we have crashed her party.
     
    PRECORO
     
    C D G F#
    this is what you'll get
    C D G F#
    this is what you'll get
    C D G
    this is what you'll get
    Bm C Bm D
    when you mess with us
     
    Am D/F# Em
    Karma Police
    G Am
    I've given all I can
    F Em
    it's not enough
    G Am
    I've given all I can
    D G C C/B Am Bm D
    but we're still on the payroll.
     
    C D G F#
    this is what you'll get
    C D G F#
    this is what you'll get
    C D G
    this is what you'll get
    Bm C Bm D
    when you mess with us
     
     
    CORO
    Bm D G
    And for a minute there
    D G D E7
    I lost myself I lost myself
    Bm D G
    And for a minute there
    D G D E7
    I lost myself I lost myself
     
     
    Bm D G
    And for a minute there
    D G D E7
    I lost myself I lost myself
    Bm D G
    Just for a minute there
    D G D E7
    I lost myself I lost myself 
     
     
    y acaba
     
     
    No surprises 
    Transcrita por Daniel Rodriguez
    (Quena284@hotmail.com)
     
     
    acordes:( Relativos al capotraste)
    D:x00230 
    Dsus2:x00232 GUITARRA 1 NO CAPOTRASTO
    Bm9:x20032 GUITARRA 2 CAPOTRASTO EN EL TRASTE 2
    G:320033
    Em:022000
    Gm:355333
    A:x02220
    Asus4:x02230
     
     
     
    Introduci¢n
     
    D Gm acordes(con capotraste)
    Guitarra 1 (no capotraste) con Chorus
    --16-----------16-----------16----------------12-14-
    --------17-----------17-----------17-------13-------
    -----16----16----16-----16-----16----16-14----------
    ----------------------------------------------------
    ----------------------------------------------------
    ----------------------------------------------------
     
    riff:
    Dsus2, D riff X 2
    Guitarra 2 con capotraste
    D Gm
    ---2-0h2---2-0h2-2-0h2-2---3--2--0--
    --3-------3-----3-----3---3--3--3---
    -2-------2-----2-----2---0--0--0----
    0-------0-----0-----0---------------
    ------------------------------------
    ------------------------------------
     
     
    Dsus2 Bm9
    A heart thats full up like a landfill,
    G
    a job that slowly kills you,
    A Asus4 A Dsus2
    bruises that won't heal.
     
    Dsus2, D riff
     
    Dsus2
    You look so tired 
    Bm9
    unhappy,bring down the government
    G A Asus4 A Dsus2
    They don't, they don't speak for us
     
    Dsus2, D riff
     
    Dsus2
    I'll take a quiet life,
    Bm9
    A handshake some carbon monoxide,
     
     
     
    Guitarra 2 (capo) D
     
    Guitarra 1
    --16----------16----------16----------16------------
    --------17----------17----------17----------17------
    -----16----16----16----16----16----16----16----16---
    ----------------------------------------------------
    ----------------------------------------------------
    ----------------------------------------------------
    Guitarra 2 Bm9
     
    Gitarra 1
    --16----------16----------16----------16------------
    --------17----------17----------17----------17------
    -----14----14----14----14----14----14----14----14---
    ----------------------------------------------------
    ----------------------------------------------------
    ----------------------------------------------------
    Guitarra 2 G A Asus4
     
    Guitarra 1
    --17----------17------------------------------------
    --------17----------17----17-17-16------------------
    -----14----14----14----14----------16---------------
    --------------------------------------16-18---------
    ----------------------------------------------------
    ----------------------------------------------------
     
     
     
    pre-coro:
     
    Guitarra 2 D
     
    Guitarra 1
    --16----------16----------16----------16------------
    --------17----------17----------17----------17------
    -----16----16----16----16----16----16----16----16---
    ----------------------------------------------------
    ----------------------------------------------------
    ----------------------------------------------------
    Guitarra 2 Bm9
     
    Guitarra 1
    --16----------16----------16----------16------------
    --------17----------17----------17----------17------
    -----14----14----14----14----14----14----14----14---
    ----------------------------------------------------
    ----------------------------------------------------
    ----------------------------------------------------
     
     
    Coro
    Em A Asus4 A
    no alarms and no surprises X 3
     
    GUITARRA 1
    Em A Asus4 A
    --------------------------------
    -14-----------------------------
    -14-13-13-11-11-9--8--8--9--11--
    --------------------------------
    --------------------------------
    --------------------------------
     
     
    Silent, Silent
     
    D Gm
    --2-------2-------2-------------O------------------
    ------3-------3-------3-------3--------------------
    ----2---2---2---2---2---2-0-3---------------------- X 2
    ---------------------------------------------------
    ---------------------------------------------------
    ---------------------------------------------------
     
    This is my final fit, my
     
    --2-------2-------2-------2------------------------
    ------3-------3-------3-------3--------------------
    ----2---2---2---2---2---2---2---2------------------
    ------0-------0-------0-------4--------------------
    ---------------------------------------------------
    --------------------------------------------------- 
     
    final bellyache with
     
    --2-------2-------2-------2------------------------
    ------3-------3-------3-------3--------------------
    ----0---0---0---0---0---O---0---0------------------
    ---------------------------------------------------
    ---2---------2-------2-------2---------------------
    ---------------------------------------------------
     
     
    Coro:
    Em A Asus4 A
    no alarms and no surprises X 3
    GUITARRA 1
    Em A Asus4 A
    --------------------------------
    -14-----------------------------
    -14-13-13-11-11-9--8--8--9--11--
    --------------------------------
    --------------------------------
    --------------------------------
     
     
    Dsus2
    please
     
    Dsus2, D riff
     
    Solo:
    A Asus4 Gm
    A Asus4 Gm
    Em Gm D
     
    Dsus2
    Sucha pretty house
    Bm9
    Sucha pretty garden
     
     
     
    Coro
    Em A Asus4 A
    no alarms and no surprises X 3
     
     
    Dsus2
    please.
     
    Es todo...

     



    VÍDEOS DE DIRECTOS
    Archivo histórico de IndyRock Magazine



    News - Noticias -todo sobre Radiohead
    GALERÍA DE FOTOS * RADIOHEAD * DIRECTOS
    TEMAS CON TABS en IndyRock * Radiohead

    .
    .

    --
     
    Copyright IndyRock ©
    TODOS LOS DERECHOS RESERVADOS:
    Queda prohibida la reproducción, distribución, puesta a disposición, comunicación pública y utilización total o parcial, de los contenidos de esta web...
    Leer más y Política de privacidad
     
    Contenidos informativos
    Agenda de conciertos
    Concursos
    Noticias
    Productoras
    Tablón de anuncios... y + Más

    Revista electrónica creada en 1997
    Home * Portada
    Servicios publicitarios
    Créditos | Qué es IndyRock
    info@indyrock.es

    Naturaleza  y divulgación científica
    waste.ideal.es
    Dirección y edición
    waste@diarioideal.es