--
.



* PÁGINAS Y AGENDAS

 
News - Noticias -todo sobre Radiohead


The King of Limbs


Radiohead en Paris 10 junio 2008 - Fotos por Laurence Boisnard


'In Rainbows',número uno en UK 
RADIOHEAD - In Rainbows (Disc 2) por Juan Gallardo Comentario
Los maravillosos colores del arco iris
por Juan Gallardo - IndyRock # 


AMNESIAC, letras, datos
KID A | letras |comentarios
Hail to the thief , LETRAS EN ESPAÑOL

Daydream Festival en Barcelona Fotos directo +"Off Computer" /12 /6 /08
Radiohead en el Foro del Sol / México
Crónica de un concierto muy esperado Por Alejandra Hidalgo
Radiohead en Río de Janeiro / Brasil
Radiohead abre el Quilmes / Argentina
28,000 personas ven a Radiohead en Chile
Galerías >100


Fotos directo giras
1994 / 1997 / 1998 / 2000 /2001 / 2002

Radiohead en  México /  Brazil / Argentina 
.
Radiohead * Tabs
Tabs para guitarra por DANIEL RODRÍGUEZ (Mexico) Especial para IndyRock

NOTAS
Tono de Do= C 
Tono de La= A 
Tono de Sol= G 
Tono de Mi= E 
Tono de Re= D 
Tono de Si= B 
Tono de Fa= F 

Tono de Si= B
TEMAS CON TABS EN ESTA PÁGINA
  • Planet telex
  • The bends
  • High and dry
  • Nice dream
  • Bullet proof i wish i was
  • Black star
  • Sulk

  •  

     
     
     
     
     

     


    TABS
    Planet telex 
    Transcrita por Daniel Rodriguez
    (Quena284@hotmail.com)
     
    Introduci¢n:
    Con tremolo y delay
    ------0---------0------
    -0----2----3----1------
    -1----2----4----2------
    -2----2----2----2------
    -2----0---------0------
    -0---------------------
     
     
    Versos 1
    You can force it but it will not come
    You can taste it but it will not form
    --------------------------------------------
    -5--4--3--4---5--4--3--4------5--4--2--4----
    -4--4--4--4---4--4--4--4------2--2--2--2----
    -2--2--2--2---2--2--2--2------2--2--2--2----
    -2--2--2--2---2--2--2--2------0--0--0--0----
    --------------------------------------------
     
    Coro:
    Everything is broken everyone is broken
    ------------------------------------------------
    -0---4---3---4-----0---4---3---4----------------
    -1---4---4---4-----1---4---4---4----------------
    -2---2---2---2-----2---2---2---2----------------
    -2---2---2---2-----2---2---2---2----------------
    -0---0---0---0-----0---0---0---0----------------
     
     
    Es todo...
     
     
    The bends 
    Trancrita por Daniel Rodriguez
    (Quena284@hotmail.com)
    Acordes:
    C7:x32310
    G/B:X20010
     
     
    Introduci¢n 
    Distorsi¢n y delay
    D C G/B C G/B C
    --2-----2-------------------------------------
    --3--3--3--3--3---3--------3---3--------3-3--3
    --2--2--2--0--0---0--0--0--0---0--0--0--0-0--0
    --0--0--0--2--0---2--2--2--0---2--2--2--2-2--2
    -----------3--2---3--3--3--2---3--3--3--3-3--3
    ----------------------------------------------
     
    Verse
    Em G
    Where do we go from here? the words are coming out all weird
    C
    Where are you now when I need you
    Em G C
    Alone on an airoplane falling asleep beside the window pane
    C7
    my blood will THICKEN.
     
    Variaci¢n: 
    A C
    ------------3-2--------------6---6---6---6B------
    -2----2P3-5-----5-3---5-5P6-8--8---8---8---------
    -2--------------------5--------------------------
    -2--------------------5--------------------------
    -0--------------------3--------------------------
    -------------------------------------------------
     
     
    Verso 2
    I need to wash myself again to hide all the dirt and pain...
     
    Em G C C7 C C7
    ------------------------------------------------------------------
    -----0-------------0-------------------------------1--1--x-x-x-x--
    -----0--x-x-x-x-0--0--------0--x-x-x-x--0--0--0-0--0--3--x-x-x-x--
    --2--2--x-x-x-x-2--2--------0--x-x-x-x--0--0--0-0--2--2--x-x-x-x--
    --2--2--x-x-x-x-2--2-----2--2--x-x-x-x--2--2--0-0--3--3--x-x-x-x--
    --0--0--x-x-x-x----0--2--3--3--x-x-x-x--3-------------------------
     
    C C7
    -------------------------------------
    --1-1--1--1-------1---1-1--1-1-1-----
    --0-0--0--0--x-x--3-3-3-3--3-3-3-----
    --2-2--2--2--x-x--2-2-2-2--2-2-2-----
    --3-3--3--3--x-x--3-3-3-3--3-3-3-----
    -------------------------------------
     
     
    A
    I am just lying in a bar..
     
    Y luego esto
    ---------------------------
    ---------------------------
    ---1--x---1---1------------
    --2--x---2---2-------------
    -2--x---2---2--------------
    0--x---0---0---------------
     
    CORO
    My babyïs got the bends....
    D C G/B C G/B C
    --2-----2-------------------------------------
    --3--3--3--3--3---3--------3---3--------3-3--3
    --2--2--2--0--0---0--0--0--0---0--0--0--0-0--0
    --0--0--0--2--0---2--2--2--0---2--2--2--2-2--2
    -----------3--2---3--3--3--2---3--3--3--3-3--3
    ----------------------------------------------
     
     
    A
    I am just lying in a bar..
     
    luego esto
    -----------------------------------------------------------------
    -----------------------------------------------------------------
    -----------------------------------------------------------------
    -----------------------------------------------------------------
    --7--7--7--7--7--7--7--7--9--9--9--9--9--9--9--9--10-10-10-10-10-
    --8--8--8--8--8--8--8--8--8--8--8--8--8--8--8--8--8--8--8--8--8--
     
    SOLO
    G C
    -----------------------------------------------------------
    -12-x--15b-15p12--12x-x--15b-15p12---5p6h5-5p6h5-5p6h5-----
    -12-x-------------12x-x--------------5-----5-----5---------
    -----------------------------------------------------------
    -----------------------------------------------------------
    -----------------------------------------------------------
    G C
    -----------------------------------------------------------
    -12P13-12-15B-12P13-15B------5-X-5-X-5---------------------
    -12-----------12-------------5-X-5-X-5---------------------
    -----------------------------5-X-5-X-5---------------------
    -----------------------------------------------------------
    -----------------------------------------------------------
    G C G
    -----3--3------X---------3-------0--0-0---0---0-----------3----
    ---------3----X---------3-X----3-3/5-5/3-3/1-1H0---------3----
    -------0--X------------0---X----------------------2-----0-----
    ------0----X----------0-----X--------------------------0------
    ----2-------X--------2-------X------------------------2-------
    ---3---------X------3--------------------------------3--------
     
    Em
    Where do we go from here...
    Esto es todo...
     
     
     
    High and dry 
    Transcrita por Daniel Rodriguez
    (Quena284@hotmail.com)
     
    Acordes:
    F#9:244400
    Asus2:x02200
    E:022100
     
     
    En la introduci¢n Utiliza una electroacustica
    con phaser o flanger.
    He visto muchas tablaturas de esta canci¢n
    pero ninguna tiene la introduci¢n; por lo
    tanto espero que esta les ayude..
     
    Introduci¢n: 
    F#9 Asus2 E x2
    ---------------------------0--0--0--0-----
    9-9-9--7-7--9-9-9--9---9---0--0--0--0-----
    9-9-9--9-9--9-9-9--11p-9---9--9--9--9-----
    9-9-9--9-9--9-9-9--9---9---9--9--9--9-----
    -------------------0-------7--7--7--7-----
    ---------------------------0--0--0--0-----
     
     
     
    Verso 1
    F#9 Asus2
    two jumps in a week I bet you think that's pretty clever
    don't you boy?
    F#9 Asus2 E
    Flying on your motorcycle watching all the ground beneath you drop
    F#9 
    You'd kill yourself for recognition,
    Asus2 E F#9
    kill yourself to never ever stop You broke another mirror,
    Asus2 E
    you're turning into something you are not
     
    CORO 
    F#9 Asus2 E
    Don't leave me high, don't leave me dry
    Don't leave me high, don't leave me dry
     
     
     
    Se repite introduci¢n 
     
     
    Verso 2 
    F#9 Asus2 E
    Drying up in conversation, you will be the one who cannot talk
    E
    19/-17-16/12-------
    -------------------
    trata de deslizar los -------------------
    dedos sobre las cuerdas -------------------
    -------------------
    -------------------
     
    F#9 Asus2
    All your insides fall to pieces, you just sit there wishing
     
    ----------------------------------------
    ----------------------------------------
    -------9---8-/--16p13-11----------------
    -------------------------11--11/9-------
    ----------------------------------------
    ----------------------------------------
    E
    you could still make love
     
    CORO 
    F#9 Asus2 E
    Don't leave me high, don't leave me dry...
     
    Solo: 
    F#9 Asus2 E X2
    ---0--0------0--0----0--0----0---0---0-----0----0-
    -5-5-4-5-5--4-5-5--4-5/7/5-4P5-5-4-5-5-2-0--2---4-
    --------------------------------------------------
    --------------------------------------------------
    --------------------------------------------------
    --------------------------------------------------
    F#9
    It's the best thing that you ever had,
    Asus2 E
    best thing that you ever ever had
    12------(HARMONICOS)
    12------
    --------
    --------
    --------
    --------
    F#9
    It's the best thing that you ever had,
    Asus2 E
    The best thing you ever had is going away
     
    F#9 Asus2 E
    ---0--0------0--0----0--0----0---0---0-----0----0-
    -5-5-4-5-5--4-5-5--4-5/7/5-4P5-5-4-5-5-2-0--2---4-
    --------------------------------------------------
    --------------------------------------------------
    --------------------------------------------------
    --------------------------------------------------
     
     
    --------0---------0-------0----------0--------------------
    /9-10-10-9-10-9/7/5/9-10-10-9-10-9/7/5-7-9-9-7H9P7-9H10P9-
    ----------------------------------------------------------
    ----------------------------------------------------------
    ----------------------------------------------------------
    ----------------------------------------------------------
     
    E
    ---------------------------0--
    9-10-10-9-10-9/7/5--------0---
    -------------------------1----
    ------------------------2-----
    -----------------------2------
    ----------------------0-------
     
    Don't leave me high, don't leave me dry...
     
    Esto es todo...
     
     
    Nice dream 
    Transcrita por Daniel Rodriguez
    (Quena284@hotmail.com)
     
     
    CAPOTRASTE EN EL 5TO TRASTE 
    (todos los tabs y acordes son relativos al capo)
    Acordes:
    E:022100
    Asus2:x02200
    B7:x21200
    F#m/A:202200
    C#m:x46654
    G5:355XX
     
     
    Introducion:
     
     
    G9 F#11 Fmaj9 E G9 F#11 Fmaj9
    0-0-0-0-0-0--0-0-0--0-0-0---0-0-0-0-0-0-0-0-0-- 
    0-0-0-0-0-0--0-0-0--0-0-0---0-0-0-0-0-0-0-0-0--
    4-4-4/3-3-3/-2-2-2/-1-1-1---4-4-4/3-3-3/2-2-2--
    5-5-5/4-4-4/-3-3-3/-2-2-2---5-5-5/4-4-4/3-3-3--
    5-5-5/4-4-4/-3-3-3/-2-2-2---5-5-5/4-4-4/3-3-3--
    -----------------------------------------------
    Despues esto:
    FIL 1
    E F#11 E F#11
    ------0-------0--------0--------0---------
    --------0-------0--------0--------0-------
    ----1-------3--------1--------3-----------
    ---2-------4--------2--------4------------
    --2-------4--------2--------4-------------
    ------------------------------------------
     
    E Asus2
    they love me like i was a brother
    B7
    they protect me, listen to me
    E Asus2
    they dug me my very own garden
    B7
    gave me sunshine, made me happy.
     
    CORO 
    F#m/A B7 FIL1
    nice dream, nice dream, nice dream.
     
     
    VERSO 2
    E Asus2
    i call up my friend the good angel
    B7
    but she's out with her answerphone
    E Asus2
    she says she would love to come help but
    B7
    the sea would electrocute us all.
     
     
    Intermedio:
    E (x4) (x4 con fil2) G5 Asus2
    ----------------------------------------
    ----------------------------------------
    ------2p4b------2p4b--------------------
    -2--5-------2--5------------------------
    ----------------------------------------
    0----------0----------------------------
     
    FIL2
    Con Delay y mucha reverberaci¢n 
    E G5 Asus2
    -10b-9b-7/-17b-16b-14--10b-9b-7/-17b-16b-14--
    ---------------------------------------------
    ---------------------------------------------
    ---------------------------------------------
    ---------------------------------------------
    ---------------------------------------------
     
     
     
    CORO 
    F#m/A B7 E C#m
    nice dream, nice dream, nice dream, nice dream
     
    F#m/A B7
    nice dream nice dream
    E
    nice dream [if you think that you're strong enough]
    C#m
    nice dream [if you think you belong enough]
    F#m/A
    nice dream [if you think that you're strong enough]
    B7
    nice dream [if you think you belong enough]
     
    es todo...
     
     
     
    Bullet proof i wish i was 
    transcrita por Daniel Rodriguez
    (Quena284@hotmail.com)
     
    ACORDES:
    Am6:x02010
    C9:x32000
    Bm:x24432
    D:X00230
    G:320033
    C7:X32310
    C:X32010
    Cadd9:x32030
    Am6 C9 Bm D
    limb by limb tooht by tooht tearing up inside of me
    Am6 C9 Bm D Am6 C9 Bm D
    everyday everyhour wish that i was a bullet proof
    Am6 C9 Bm D
    wax me mould me heat the pins and stab them in 
    Am6 C9 Bm D
    you have turned me into this just wish that it was...
     
    CORO
    D G D C Cadd9 G D C C7
    bullet prooooo......f bullet prooooo......f
     
    Am6 C9 Bm D
    so pay me money and take a shot lead fill the hole in me
    Am6 C9 Bm D
    I could burst a million bubbles all surrogate &
     
     
    CORO
    D G D C Cadd9 3X G D C C7
    bullet prooooo......f bullet proooo.......f
     
    G D C X3 C7
    Con tremolo effect
    ------------------------------------------------
    ------12-----------5----5-----3---3-------------
    /11P12---11P12-7H0---7H0---4H0-4H0---/11--------
    ------------------------------------------------
    ------------------------------------------------
    ------------------------------------------------
     
    Y ESO ES TODO...
     
     
    Black star 
    transcrita por Daniel Rodriguez
    (Quena284@hotmail.com)
     
    ACORDES:
    D:xx0232 
    G/B:x20033 
    Dadd4/F#:2x0233 
    Dsus4:xx0233 
    A7sus4:x02033 
    Emadd9:024000 
    G:320033 
    Bm:x24432 
    Cadd9:x32033 
    Am:X02210 
     
    Introduci¢n 
    D Dsus4 D Dsus4 Cadd9 G/B A7sus4
    --2p3--3-3--2p3--3-3----3----3----3--------
    -3----3-3--3----3-3----3----3----3---------
    2----2-2--2----2-2----0----0----0----------
    ---------------------2----0----2-----------
    --------------------3----2----0------------
    -------------------------------------------
     
     
    G Cadd9 G/B Dadd4/F#
    I get home from work and you're still standing in your dressing gown
    well
    Emadd9
    what am I to do?
    G Cadd9 G/B Dadd4/F# Emadd9
    I know all the things around your head, and what they do to you
    Cadd9 Bm D 
    What are we coming to? What are we gonna do? 
     
    Bm D
    2---2p3----5-----
    -3------3-/5-----
    --4--------------
    -----------------
    -----------------
    -----------------
     
     
    blame it on the
    Am C
    --------------0--------0--
    -------------1--------1---
    -7/5--4-4---2--------0----
    -----------2--------2-----
    ----------0----0h2-3------
    --------------------------
     
     
    Am G/B Cadd9 Am G/B Cadd9
    Black Star Blame it on the falling sky
    G Cadd9 G Cadd9 D
    Blame it on the satellite That beams me home
    G Cadd9 G/B Daad4/F#
    the troubled words of a troubled mind i try to understand
    Emadd9
    what is eating you.
    G Cadd9 G/B Dadd4/F# Emadd9
    i try to stay awake but its 58 hrs since that i last slept with you.
    Cadd9
    what are we coming to?
    Bm D
    i just don't know anymore.
     
    i get on the train and i just stand about now that i don't think of you.
    i keep falling over i keep passing out when i see a face like you.
    what am i coming to?
    i'm gonna melt down.
     
    Y TERMINA
     
     
    Sulk
    Transcrita por Daniel Rodriguez
    (Quena284@hotmail.com)
     
    Introducion:
    En la introduci¢n puedes tocar
    los acordes con tremolo y delay
    para dar atmosfera abajo.
     
    D C D
    --------------------------------------
    ----3-2-----3-2------0-1------3-2-----
    --------2-------2--------0--------2---
    --0-------0------------------0--------
    -------------------3------------------
    --------------------------------------
     
    D
    You bite through the big wall
    D
    The big wall bites back
    D C G
    You sit there and sulk
    D
    Sit there and ball.
     
    CORO:
     
    D G C
    Sometime you sulk,
    D
    sometime ya burn
    G C
    God rest you soul...
     
     
     
    Intermedio:
    la primera vez solo fil 1 hasta la segunda
    los conbinas.
    fil 1 
    E D
    --------------------------------------------
    --------------------------------------------
    -----9/21-20-16---9/21-20-16--7/19-18--14---
    --------------------------------------------
    ----7/19-18-14---7/19-18-14--5/17-16-12-----
    ---0-----0------0-----0---------------------
     
    fil 2
    E D
    ---------------------------------------------------
    ---------------------------------------------------
    17-17B-16-14-13-13B-11-14-13-11--17B16-14-12-11-9--
    ---------------------------------------------------
    ---------------------------------------------------
    ---------------------------------------------------
     
    CORO: 
    En esta parte se suben los tonos
     
    A D E
    Sometime you sulk,
    A
    sometime you burn
    D E
    God rest you soul...
     
     
    Es todo...

     



    VÍDEOS DE DIRECTOS
    Archivo histórico de IndyRock Magazine



    vídeopromoción



    News - Noticias -todo sobre Radiohead
    GALERÍA DE FOTOS * RADIOHEAD * DIRECTOS
    TEMAS CON TABS en IndyRock * Radiohead

    .


    --
     
    Copyright IndyRock ©
    TODOS LOS DERECHOS RESERVADOS:
    Queda prohibida la reproducción, distribución, puesta a disposición, comunicación pública y utilización total o parcial, de los contenidos de esta web...
    Leer más y Política de privacidad
     
    Contenidos informativos
    Agenda de conciertos
    Concursos
    Noticias
    Productoras
    Tablón de anuncios... y + Más

    Revista electrónica creada en 1997
    Home * Portada
    Servicios publicitarios
    Créditos | Qué es IndyRock
    info@indyrock.es

    Naturaleza  y divulgación científica
    waste.ideal.es
    Dirección y edición
    waste@diarioideal.es