--
.



* PÁGINAS Y AGENDAS

 
News - Noticias -todo sobre Radiohead


The King of Limbs


Radiohead en Paris 10 junio 2008 - Fotos por Laurence Boisnard


'In Rainbows',número uno en UK 
RADIOHEAD - In Rainbows (Disc 2) por Juan Gallardo Comentario
Los maravillosos colores del arco iris
por Juan Gallardo - IndyRock # 


AMNESIAC, letras, datos
KID A | letras |comentarios
Hail to the thief , LETRAS EN ESPAÑOL

Daydream Festival en Barcelona Fotos directo +"Off Computer" /12 /6 /08
Radiohead en el Foro del Sol / México
Crónica de un concierto muy esperado Por Alejandra Hidalgo
Radiohead en Río de Janeiro / Brasil
Radiohead abre el Quilmes / Argentina
28,000 personas ven a Radiohead en Chile
Galerías >100


Fotos directo giras
1994 / 1997 / 1998 / 2000 /2001 / 2002

Radiohead en  México /  Brazil / Argentina 
.
Radiohead * Tabs
Tabs para guitarra por DANIEL RODRÍGUEZ (Mexico) Especial para IndyRock
NOTAS
Tono de Do= C 
Tono de La= A 
Tono de Sol= G 
Tono de Mi= E 
Tono de Re= D 
Tono de Si= B 
Tono de Fa= F 

Tono de Si= B
TEMAS CON TABS EN ESTA PÁGINA
  • You Never Wash Up After Yourself
  • Street spirit (fade out)
  • just
  • lewis
  • The trickster
  • you

  •  

     
     
     

     


    TABS
    YOU NEVER WASH UP AFTER YOURSELF
    Dm C/Dm B/Dm G/Dm
    -------1-----------1-----------1-----------1-----
    -----3---3-------3---3-------3---3-------3---3---
    ---2-------2---2-------2---0-------0---0-------0-
    -0-----------------------------------------------
    -------------3-----------2-----------------------
    -------------------------------------3-----------
    C B/C Am
    -------0-----------0-----------0-----------0-----
    -----1---1-------1---1-------1---1-------1---1---
    ---0-------0---0-------0---2-------2---2-------0-
    -------------------------------------------------
    -3-----------2-----------0-----------0-----------
    -------------------------------------------------
    F G E Am
    -------0-----------3-----------0-----------0-----
    -----1---1-------3---3-------0---0-------1---1---
    ---2-------2---0-------0---1-------1---2-------2-
    --------------------------2-----------------------
    --------------------------------------0-----------
    -1-----------3-----------0-----------------------
    C3 G C3 C3
    -------3-----------3-----------3-----------3-----
    -----1---1-------3---3-------1---1-------1---1---
    ---0-------0---0-------0---0-------0---0-------0-
    -------------------------------------------------
    -3-----------------------3-----------3-----------
    -------------3-----------------------------------
    I must get out once in a while,
    Everything is starting to die,
    The dust settles, the worms dig,
    Spiders crawl over the bed.
    I must get out once in a while,
    I eat all day and now I'm fat,
    Yesterday's meal is hugging the plates.
    You never wash up after yourself.
    ...
     
    Este es el riff es muy sencillo
    E --------3--3--3--3--
    B --------4--4--3--1--
    G --------------------
    D --------------------
    A --1--3--------------
    low E --------------------
     
    esta es la segunda parte recuerden
    que esta cancion se basa en bateria
    y voz
    E --------------------
    B ---------4----------
    G ---1-0--------------
    D --------------------
    A --------------------
    E -4------------------
    Este riff lleva lesly y wah
    -----8-8-x-x-x--8-8-----------------------
    -----8-8-x-x-x--8-8-----------------------
    -----9-9-x-x-x--8-8----------------------
    ---10--10x-x-x--8-8-----------------------
    -10----10x-x-x--8-8-------------------------
    8-----8--x-x-x--8-8------------------------
    ....
    Street spirit (fade out)
    Am Asus4 Am Asus2 
    E-|---------0---------------0---------------0-----------------------|
    B-|-----------------3---------------1---------------0---------------|
    G-|-----2-------2-------2-------2-------2-------2-------2-------2---|
    D-|---------------------------------------------------------2-------|
    A-|-0---------------------------------------------------------------|
    E-|-----------------------------------------------------------------|
     
    Figura E:-
    Em Em7 Em6 Em 
    E-|---------0---------------0---------------0-----------------------|
    B-|-----------------3---------------1---------------0---------------|
    G-|-----0-------0-------0-------0-------0-------0-------0-------0---|
    D-|---2-----------2-------------------------------------------2-----|
    A-|--2--------------2----------------------------------------2------|
    E-|-0---------------------------------------------------------------|
     
    Durante los primeros versos solo toca figura a y figura e
    en el coro comienza con figura c despues e y al final a
     
     
    Figura C:-
    C Cadd9 C Cmaj7 
    E-|---------0---------------0---------------0-----------------------|
    B-|-----------------3---------------1---------------0---------------|
    G-|-----0-------0-------0-------0-------0-------0-------0-------0---|
    D-|---------------------------------------------------------2-------|
    A-|-3---------------------------------------------------------------|
    E-|-----------------------------------------------------------------|
     
     
    Introducion : A
    Versos : A E
    Choro : C E A
     
    just 
    riff 1
    e-----------------------
    B-----------------------
    G-5-5-8-8-7-7-7-10-10-10
    D-5-5-8-8-7-7-7-10-10-10
    A-3-3-6-6-5-5-5--8-8--8-
    E-----------------------
    fil 1
    e-----------------------------8-8-10-11-11-13-14-14-15-16-16
    B-----------------------------------------------------------
    G-5-5-7-8-8-10-11-11-13-14-14-5-5-7--8--8--10-11-11-13-14-14
    D-----------------------------------------------------------
    A-3-3-5-6-6-8--9--9--11-12-12-------------------------------
    E-----------------------------------------------------------
    limpio
    Am G# Am G#
    e--5---4--------------------5---4-----------------
    B--5---4--------------------5---4--10-12-13-5-7-8-
    G--5---5--12-14-15-14-15-17-5---5-----------------
    D--7---6--------------------7---6-----------------
    A--7---6--------------------7---6-----------------
    E--5---4--------------------5---4-----------------
    Am G# G F# F
    e-------------|------
    B------------.|------
    G---5-7-b7---5|-4-5-8
    D-7--------7-.|------
    A-------------|------
    E-------------|------
    riff 2
    Can you do it to yourself...
    e---------------------------
    B---------------------------
    G-5-5-5---------------------
    D-5-5-5-4-4-4-3-3-3-3-3-3-3-
    A-3-3-3-4-4-4-3-3-3-3-3-3-3-
    E-------2-2-2-1-1-1-1-1-1-1-
    E D C# 2x
    e---------------------------
    B---------------------------
    G-9-11-12-14-15-14-12-10-9--
    D---------------------------
    A-7-9--10-12-13-12-10-8--7--
    E---------------------------
    ( Am G# G 2X) DESPUES (Am G# G F# F)
    e--------------------------------------------------------
    B--------------------------------------------------------
    G-7h9-9--------------------------------------------------
    D-------12-12p10-12h13-12p10--8h10--8h10-----------------
    A----------------------------------------8h10---8h10-----
    E--------------------------------------------------------
    SE REPITE EL RIIF 1 CON FIL 1
    Y LUEGO SE QUEDA EN ESTA PISADA
    C7sus4
    e----------------------------
    B-----x---4---x----4---------
    G----x---3---x----3----------
    D---x---2---x----2-----------
    A--x---3---x----3------------
    E----------------------------
    fil2
    e----------------------------
    B----------------------------
    G----------------------------
    D----------------------------
    A-10-10-10-8-8-8-7-7-13-13-13
    E-8--8--8--6-6-6-5-5-11-11-11
    C Ab A D# (2X)
    e-------------------11H8-------------------
    B-----------------------11H8---------------
    G-8H5--5-8H5--8H5-------------11H9---------
    D-----7------7----7----------------11H9----
    A------------------------------------------
    E------------------------------------------
    lewis 
     
    G3:32XXXX
    G#3:43XXXX
    A3:54XXXX
    F#3:20XXXX
     
     
     
     
    -3-3-3-3-3-3-3-3-|
    -3-3-3-3-3-3-3-3-|
    -0-0-0-0-0-0-0-0-| RIFF A 
    -0-0-0-0-0-0-2-0-|
    -2-2-2-2-2-0-3-2-|
    -3-3-3-3-3-2-----|
     
    G3 G#3 A3 F#3
    Bummed out again by another what?
    G3 G#3 A3 F#3
    This whole affair is bigger than you think
    --------3-3---3-3|--3-3---3-3|
    --------3-3---3-3|--3-3---3-3|
    --------0-0---0-0|--0-0---0-0| RIFF 2
    -----------------|--------0-0|
    ------3-----2----|0-------2-2|
    -----------------|------3-3-3|
    Don't do it Don't
    continuas con el riff 1
    G3 G#3 A3 F#3
    Can't seem to fit in the end you just get sick
    G3 G#5 A3 F#3
    And then you know and out of 
    Don't do it Don't
    A E RIFF3
    Lewis..save yourself the pain..you'll never get there 
    Riff3
    3-3-3-x-x-x-3-3-3-x-x----
    3-3-3-x-x-x-3-3-3-x-x----
    5-5-5-x-x-x-5-5-5-x-x----
    5-5-5-x-x-x-5-5-5-x-x----
    3-3-3-x-x-x-3-3-3-x-x----
    3-3-3-x-x-x-3-3-3-x-x----
    A E RIFF 3 
    Lewis..save yourself the pain..and have a real 
    G3 G#3 A3 F#3 
    We never noticed, we never understood
    G3 G#3 A3 F#3
    You just can't crush to fit, you never even smiled
    riff2
    it's the best, it's the best, it's the best day I ever..
    ..lived.
    riff4
    --------0h3p0-------------0--------0------0h3p0-------------2h3p2--|
    ------3-------3---------3---3-----3--3--3-------3-------3----------|
    ----0-----------0-----0-------0--0-------------2---2---2---------2-|
    --0-----------------0-----------0------------------0---------------|
    ------------------2------------1-----------0-----------------------|
    3------------------------------------------------------------------|
    esto junto con el riff 4
    ------------------------------------------------3-----------------|
    ---3-------------5----5h6------5---5h6--------3-------------------|
    --0----------------7-------7------7-----7----0--------------------|
    ------------------------------------------------------------------|
    -------------------------------------------0----------------------|
    ---3------------7-------------6-----------------------------------|
     
    y termina con esto
     A y el riff 1
    The trickster
     
    Introduci¢n
    fil 1
    -----------------------------------------------------
    --3-------------3-------------3----------------------
    --3-2-0-2-3-2-0-3-2-0-2-3-2-0-3-2-0-2-3-2-0---8---7--
    --0-0-0-0-0-0-0-0-0-0-0-0-0-0-0-0-0-0-0-0-0--7---7---
    --------------------------------------------6---5----
    --3-------------2-------------1----------------------
     
    2da parte
    fil 2 dos veces
    -------------------3------------------
    ------------------3-------------------
    ---8--8--8--8----3--------------------
    --8--8--7--7----5---------------------
    -6--6--6--6----5----------------------
    --------------3-----------------------
    despues de lo anterior combina el fil 1
    con el siguiente fil
    fil 3
    --------------------------3--------------------------
    -3-1--1-1h3-1----3-1---1-3--1-3---3-1---1-1h3----4--3
    -----3--------3------3----------------3-------3------
    -----------------------------------------------------
    -----------------------------------------------------
    -3--------------2----------------1-------------------
     
     
    se repite todo y despues esto
    fil 4 2veces
    -----0----0------0----0----0---0----0----0----0------
    ---3--3--3--3--3--3--3--3-3-3---3--3-3-3--3--3--3----
    -----------------------------------------------------
    -----------------------------------------------------
    -1-----1-----2-----2-----3----3---2---2----1---------
    -----------------------------------------------------
    fil 5
    agrega esto al fil4
    entre cada tono
    ------------------
    ------------------
    ------------------
    -7b-7--5----------
    ------------------
    ------------------
     
    you
     
    Con tremolo effect
    Em C G
    -----10-----10------------
    9---9--9---9--12-12-10-10-
    ---9------9-----9----9----
    9-9----9-9----9--9-9--9---
    --------------------------
    --------------------------
    verso primero
    Em C G
    You are the......
    Em C G
    ----0-0----0--0---0----0---0---0--0-0-------------
    -3/5-5-5/7-8/10-10/12-12/13/12-12/10/8------------
    --------------------------------------------------
    --------------------------------------------------
    --------------------------------------------------
    --------------------------------------------------
     
     
     
    LUEGO ESTO
    C# C Em C# C Em
    -------------------------------------------------
    --------------------------------------------------
    6-6-6-5-5-5----------------------6-6-6-5-5-5------
    6-6-6-5-5-5----------------------6-6-6-5-5-5------
    4-4-4-3-3-3---5h7--5h7--5h7--5h7-4-4-4-3-3-3------
    -------------0----0----0---0----------------------
     
    Y SE REPITE TODO PERO CON DIFERENTES LETRAS

     



    VÍDEOS DE DIRECTOS
    Archivo histórico de IndyRock Magazine



    News - Noticias -todo sobre Radiohead
    GALERÍA DE FOTOS * RADIOHEAD * DIRECTOS
    TEMAS CON TABS en IndyRock * Radiohead
    .


    --
     
    Copyright IndyRock ©
    TODOS LOS DERECHOS RESERVADOS:
    Queda prohibida la reproducción, distribución, puesta a disposición, comunicación pública y utilización total o parcial, de los contenidos de esta web...
    Leer más y Política de privacidad
     
    Contenidos informativos
    Agenda de conciertos
    Concursos
    Noticias
    Productoras
    Tablón de anuncios... y + Más

    Revista electrónica creada en 1997
    Home * Portada
    Servicios publicitarios
    Créditos | Qué es IndyRock
    info@indyrock.es

    Naturaleza  y divulgación científica
    waste.ideal.es
    Dirección y edición
    waste@diarioideal.es