--
.



* PÁGINAS Y AGENDAS

 
News - Noticias -todo sobre Radiohead


The King of Limbs


Radiohead en Paris 10 junio 2008 - Fotos por Laurence Boisnard


'In Rainbows',número uno en UK 
RADIOHEAD - In Rainbows (Disc 2) por Juan Gallardo Comentario
Los maravillosos colores del arco iris
por Juan Gallardo - IndyRock # 


AMNESIAC, letras, datos
KID A | letras |comentarios
Hail to the thief , LETRAS EN ESPAÑOL

Daydream Festival en Barcelona Fotos directo +"Off Computer" /12 /6 /08
Radiohead en el Foro del Sol / México
Crónica de un concierto muy esperado Por Alejandra Hidalgo
Radiohead en Río de Janeiro / Brasil
Radiohead abre el Quilmes / Argentina
28,000 personas ven a Radiohead en Chile
Galerías >100


Fotos directo giras
1994 / 1997 / 1998 / 2000 /2001 / 2002

Radiohead en  México /  Brazil / Argentina 
.
Radiohead * Tabs
Tabs para guitarra por DANIEL RODRÍGUEZ (Mexico) Especial para IndyRock
NOTAS
Tono de Do= C 
Tono de La= A 
Tono de Sol= G 
Tono de Mi= E 
Tono de Re= D 
Tono de Si= B 
Tono de Fa= F 

Tono de Si= B
TEMAS CON TABS EN ESTA PÁGINA
  • Creep
  • How dou you?
  • Stop whispering
  • Thinking About You
  • Ripcord
  • I Can't

  •  

     
     
     

     


    TABS
    Creep
    Transcrita por Daniel Rodriguez
    (Quena284@hotmail.com)
     
    introducion:
    Con tremolo 
    G B C Cm
    --------------------------------------------------------------
    --------------------------------------------------------------
    -------4---5-4--4-----6--6-7-6-----9---9-10-9-----8--8-8------
    ---5-------------------------------------------------10-------
    --5--5---5-----5-----9--9---9----10--10--------10---10--------
    -3----------------7------------8--------------8---------------
     
    verso 1
    When were here before, could't look to your eyes
    You are like an angel your skin makes me cry...
    G
    ----------------------------------3-----------------------3-------
    ----------------------------------3-------------3-----------------
    --------4-----------4-------4-------------4-----4-------------4---
    ------------5---------------------------------5-------------------
    ----5-----------5-------------------------------------------------
    3-----------------------------------------------------------------
    B
    -----------------------------------7-----------------------7------
    ---------7-----------7-------7-----7---7-------7---------------7--
    ---------8-------8-------8-----------------8-----------8----------
    -----9-------9----------------------------------------------------
    -9----------------------------------------------------------------
    7-----------------------------------------------------------------
    C
    ----------------------------------8-----------------------8---------
    ------------------------8-------------8-------8---------------8-----
    -------9-------9-----------9-------------9-----------9--------------
    ----10--------------10----------------------------------------------
    10----------10------------------------------------------------------
    --------------------------------------------------------------------
    Cm
    -------------------------------------------------------------------
    ----8--------------------------------------------------------------
    --------8-------8---------------------8-----------8----------------
    ------------10------10------10------------10----------10------10---
    10----------------------10--------10----------10----------10-------
    -------------------------------------------------------------------
    Precoro
    tapa las cuerdas con distorsion
    ------------------------------------
    ------------------------------------
    --x-x-------------x-x---------------
    --x-x-------------x-x---------------
    --x-x-------------x-x---------------
    --x-x-------------x-x---------------
     
     
    But i am a creep I am a weirdo...
    guitarra jon Greenwood 
    Con distorsion:
    G B C Cm
    ----------------------------------------------------------------- 
    ----------------------------------------------------------------
    --------------------------9-------------8------------------------
    -5------------9-----------10----------------10---10--12-13--15--17
    -5--2p3-2-----9--6p7-6----10--7p8-7----10-------------------------
    -3--------3-/-7--------7--8--------------8--8---8---10--11--13--15
     
     
    Se repite de nuevo lo de arriba
    y de nuevo en el coro esto...
     
    G B C Cm
    -------------------------------------------------------------------
    -------------------------------------------------------------------
    --------------------------9-------------8--------------------------
    -5------------9-----------10----------------10---10--12-13--15--17-
    -5--2p3-2-----9--6p7-6----10--7p8-7----10--------------------------
    -3--------3-/-7--------7--8------------8----8---8---10--11--13--15-
     
    G B C Cm G B C Cm G
    ---------------------------------------------------------
    ---------------------------------------------------------
    ------16--16--17--19--20---22/-12--16--17--19-20-22------
    -17------------------------------------------------------
    ----14--14--15--17--18---20-/-10--14--15--17-18-20-------
    15-------------------------------------------------------
     
     
    se repite lo de arriba
    Whatever makes you happy.....
     
    eso es todo
     
     
     
    How dou you? 
    Transcrita por Daniel Rodriguez 
    (Quena284@hotmail.com)
     
     
    Acordes
    A:x02220
    E:022100
    Fm#:244222
    G:320033
    Dsus2:x00232
    A5:577xxx
     
     
     
    Introduci¢n
     
    Guitarra 1 A
    ----------------------------------
    ----------------------------------
    ----------------------------------
    -0-0--2--0--2----0-0--2-0--2------
    -0-0--0--0--0----0-0--0-0--0------
    ----------------------------------
     
    Guitarra 2 A
    --------------------------------------
    --------------------------------------
    --------------------------------------
    ---7-7--6--7--6-6--7--7--6--7-6-------
    --0-0--0--0--0---0---0--0--0--0-------
    --------------------------------------
     
    A E 
    He's bitter and twisted, he knows what he wants
    F#m E 
    He wants to be loved and he wants to belong
    A E 
    He wants us to listen, he wants us to weep
    F#m E 
    He was a stupid baby who turned into a powerful freak
     
     
     
    CORO FIL1
    G G D
    But how do you? ----------------------------------
    Dsus4 A5 ----------------------------------
    How do you? ---12/11--9----12-11/9--7---------
    Asus2/A ----------------------------------
    How do you? -10/9--7-----10-9/7---5-----------
    ----------------------------------
    A E 
    He lives with his mother, but we show him respect
    F#m E E 
    He's a dangerous bigot, but we always forget
    A
    And he's just like his daddy
    Because he cheats on his friends
    F#m
    And he steals and he bullies
    Anyway that he can
     
     
     
    CORO CON FIL 1
    G
    But how do you?
    Dsus4 A5
    How do you?
    Asus2/A
    How do you?
     
     
     
     
    Stop whispering 
    Transcita por Daniel Rodriguez 
    (Quena284@hotmail.com)
     
    Acordes:
    G:320033
    D:X00230
     
    Esta cancion es muy facil solamnete arpegea los acordes
    y coloca los efectos adecuados.
     
    D G D G
    And the wise men say I don't want to hear your voice
    D G D G
    And the thin men say I don't want to hear your voice
    D G D G
    And they're cursin' me and they won't let me be
    D G
    There's nothing to say
    D G
    There's nothing to do
    CORO
    D G D G
    Stop whispering... Start shouting
    D G D G
    Stop whispering... Start shouting
     
     
    Verso 2: 
    D G D G
    And my mother say we spit on you son some more 
    D G D G
    And the building say we spit on your face some more 
    D G D G
    And the feeling is that there's something wrong
    D G D G
    'Cause I can't find the words and I can't find the songs
     
     
    CORO
    D G D G
    Stop whispering... Start shouting
    D G D G
    Stop whispering... Start shouting
    D G D G
    ------------------------------------
    ------------------------------------
    -------11/12-6-6/7-7--11-11/12------
    ------------------------------------
    ------9/10--4-4/5-5--9-9/10---------
    ------------------------------------
     
     
     
    D G D G
    Dear sir, I've a complaint Dear sir, I've a complaint
    D G D G
    Can't remember what it is Doesn't matter anyway
    D G
    Doesn't matter anyway
    D G D G
    It's not a word It's not a word 
     
    CORO:
    D G D G
    Stop whispering Stop whispering
    D G D G
    Stop whispering Stop whispering
    D G
    Start shouting
     
    ES TODO 
    TE ACONSEJO QUE ELABORES TUS PROPIOS ARREGLOS
     
     
     
    Thinking About You 
    Transcrita por Daniel Rodriguez
     
     
     
    G C G C G 
    Been thinkin 'bout you, your records up here
    G C G C F#/D 
    Your eyes on my wall, your teeth are over there
    Em F#/D G 
    But I'm still no one, and you're a star
    C G 
    What do you care
     
     
    G C G C G 
    Been thinkin 'bout you, and there's no rest
    G C G C F#/D 
    Should I still love you, still see you in bed
    Em F#/D G 
    But I'm playin' with myself, what do you care
    C G
    When the other men are far far better
     
     
    C C C
    All the things you got, all the things you need 
    C C C Em
    I bought you cigarettes, I'll bribe the company
    C C C
    To come and see you, honey
     
     
    G C G C G 
    Been thinkin 'bout you, so how can you sleep
    G C G C F#/D 
    These people aren't your friends, they're paid to kiss your feet
    Em F#/D G 
    But they don't know what I know, why should you care
    C G
    When I'm not there
     
     
    G C G C G 
    Been thinkin 'bout you, and there's no rest
    G C G C F#/D 
    Should I still love you, still see you in bed
    Em F#/D G 
    But I'm playin' with myself, what do you care
    C G
    When I'm not there
     
     
    este arreglo en el intermedio
    con tremolo y chorus
    ---8---8----7-------------7--
    5----5---5-----5---5---------
    -----------7-----7---7-------
    -----------------------------
    -----------------------------
    -----------------------------
     
    C C C C C
    All the things you got, you'll never need 
    C C C C Em C
    All the things you got, I'm planning to bleed to,
    G
    Please you
     
     
    Been thinkin' bout you
     
     
     
     
    Ripcord
    Transcrita por Daniel Rodriguez
    (Quena284@hotmail.com)
     
    Acordes:
    G:320033
    D:x00230
    A:X02220
    Dsus4:x00232
    C#:466xx
    C:355XX
    B:244XX
    A#:133XX
     
     
    VERSO 1
    G D
    Soul destroyed
    G D
    With clever toys 
    G D G A
    For little boys
    G D G D
    It's inevitable, inevitable
    G D G A
    It's a soul de stroyed
    PRECORO 
    G A D 
    You're free until you drop
    G A D
    You're free 'til you've had enough
    G
    And you don't understand 
    CORO 
    You've no ripcord No ripcord
    D C# C B A#
    --------------------------------------
    --------------------------------------
    -11-11--9--9--10-10--7--7--7P9-7P9----
    12-12-12-12--10-10--10-10--8-8-8-8----
    --------------------------------------
    --------------------------------------
    No ripcord No ripcord
     
     
    VERSO 2
    G D G D
    Aero plane do I mean 
    G D G A
    what I mean?
    G D G D 
    It's inevi table, inevi table,
    G D G A 
    Oh aeroplane
    PRECORO 
    G A D Dsus4 
    A thousand miles an hour
    G A D
    On poli tics and power 
    G
    that you don't understand
     
    CORO 
    You've no ripcord No ripcord
    D C# C B A#
    --------------------------------------
    --------------------------------------
    -11-11--9--9--10-10--7--7--7P9-7P9----
    12-12-12-12--10-10--10-10--8-8-8-8----
    --------------------------------------
    --------------------------------------
    No ripcord No ripcord
     
     
    INTERMEDIO
    G A
    -------------------------------------
    -------------------------------------
    --12-12-6/7-12--12/6-/7--16--14--12--
    -------------------------------------
    10-10--4/5--10-10/4/5--14--12--10----
    -------------------------------------
     
     
    Precoro
    G A D Dsus4 
    The answer to your prayers
    G A D G
    We'll drop you any- where
     
     
    CORO 
    With no ripcord No ripcord
    D C# C B A#
    --------------------------------------
    --------------------------------------
    -11-11--9--9--10-10--7--7--7P9-7P9----
    12-12-12-12--10-10--10-10--8-8-8-8----
    --------------------------------------
    --------------------------------------
    No ripcord No ripcord
     
     
    Es todo...
     
     
    I Can't 
    Transcrita por Daniel Rodriguez
    (Quena284@hotmail.com)
     
    Introducion: (x2)
    Con Delay y Reverb.
    10-10-10-12-12-8h10p8-7h8p7-5h7p5-]---7-8-
    ------------------------------------------
    ------------------------------------------
    ------------------------------------------
    ------------------------------------------
    ------------------------------------------
    G C G/B Am D 
    Please forget the words that I just blurted out
    G C G/B D 
    It wasn't me it was my strange and creeping doubt
    Em Em
    It keeps rattling my cage and there's nothing in this world
    C
    will keep it down
     
    CORO 
    G C Em Am
    Even though I might even though I try I can't 
    G C Em D
    Even though I might even though I try I can't 
     
    Verso 2 
    G C G/B D D
    So many things that keep that keep me underground
    G C G/B D D
    So many words that I that I can never find
    Em Em
    If you give up on me now I'll be gutted like
    C
    I've never been before
     
    Intermedio: 
    G C D D G C Bm D
    -3--3--0----0-----3--3--2-----0------
    -3--3--3----3-----3--3--3-----3------
    -0--0--2-5b-2--5b-0--0--4--5b-2-5b---
    -0--2--0----0-----0--2--4-----0------
    -2--3-------------2--3--2------------
    -3----------------3------------------
     
     
    Esto durante el bajo de solo
    ------------------------------
    ------------------------------
    ------------------------------
    -2-4/5-10-9/-2-4/5/-10-9------
    ------------------------------
    ------------------------------
     
     
    G G C C 4x
     
    G C Em Am G C Em Am G x2
    15b-14b-15b-14b--15b14b12b10b-8b-7b5b3b--- 
    18b-17b-18b-17b--18b17b15b13b11b10b8b6b---
    ------------------------------------------
    ------------------------------------------
    ------------------------------------------
    ------------------------------------------Guitar tab...by Daniel Rodríguez
    QUENA284@HOTMAIL.COM

    Creep
    Transcrita por Daniel Rodriguez
    (Quena284@hotmail.com)
     
    introducion:
    Con tremolo 
    G B C Cm
    --------------------------------------------------------------
    --------------------------------------------------------------
    -------4---5-4--4-----6--6-7-6-----9---9-10-9-----8--8-8------
    ---5-------------------------------------------------10-------
    --5--5---5-----5-----9--9---9----10--10--------10---10--------
    -3----------------7------------8--------------8---------------
     
    verso 1
    When were here before, could't look to your eyes
    You are like an angel your skin makes me cry...
    G
    ----------------------------------3-----------------------3-------
    ----------------------------------3-------------3-----------------
    --------4-----------4-------4-------------4-----4-------------4---
    ------------5---------------------------------5-------------------
    ----5-----------5-------------------------------------------------
    3-----------------------------------------------------------------
    B
    -----------------------------------7-----------------------7------
    ---------7-----------7-------7-----7---7-------7---------------7--
    ---------8-------8-------8-----------------8-----------8----------
    -----9-------9----------------------------------------------------
    -9----------------------------------------------------------------
    7-----------------------------------------------------------------
    C
    ----------------------------------8-----------------------8---------
    ------------------------8-------------8-------8---------------8-----
    -------9-------9-----------9-------------9-----------9--------------
    ----10--------------10----------------------------------------------
    10----------10------------------------------------------------------
    --------------------------------------------------------------------
    Cm
    -------------------------------------------------------------------
    ----8--------------------------------------------------------------
    --------8-------8---------------------8-----------8----------------
    ------------10------10------10------------10----------10------10---
    10----------------------10--------10----------10----------10-------
    -------------------------------------------------------------------
    Precoro
    tapa las cuerdas con distorsion
    ------------------------------------
    ------------------------------------
    --x-x-------------x-x---------------
    --x-x-------------x-x---------------
    --x-x-------------x-x---------------
    --x-x-------------x-x---------------
     
     
    But i am a creep I am a weirdo...
    guitarra jon Greenwood 
    Con distorsion:
    G B C Cm
    ----------------------------------------------------------------- 
    ----------------------------------------------------------------
    --------------------------9-------------8------------------------
    -5------------9-----------10----------------10---10--12-13--15--17
    -5--2p3-2-----9--6p7-6----10--7p8-7----10-------------------------
    -3--------3-/-7--------7--8--------------8--8---8---10--11--13--15
     
     
    Se repite de nuevo lo de arriba
    y de nuevo en el coro esto...
     
    G B C Cm
    -------------------------------------------------------------------
    -------------------------------------------------------------------
    --------------------------9-------------8--------------------------
    -5------------9-----------10----------------10---10--12-13--15--17-
    -5--2p3-2-----9--6p7-6----10--7p8-7----10--------------------------
    -3--------3-/-7--------7--8------------8----8---8---10--11--13--15-
     
    G B C Cm G B C Cm G
    ---------------------------------------------------------
    ---------------------------------------------------------
    ------16--16--17--19--20---22/-12--16--17--19-20-22------
    -17------------------------------------------------------
    ----14--14--15--17--18---20-/-10--14--15--17-18-20-------
    15-------------------------------------------------------
     
     
    se repite lo de arriba
    Whatever makes you happy.....
     
    eso es todo
     
     
     
    How dou you? 
    Transcrita por Daniel Rodriguez 
    (Quena284@hotmail.com)
     
     
    Acordes
    A:x02220
    E:022100
    Fm#:244222
    G:320033
    Dsus2:x00232
    A5:577xxx
     
     
     
    Introduci¢n
     
    Guitarra 1 A
    ----------------------------------
    ----------------------------------
    ----------------------------------
    -0-0--2--0--2----0-0--2-0--2------
    -0-0--0--0--0----0-0--0-0--0------
    ----------------------------------
     
    Guitarra 2 A
    --------------------------------------
    --------------------------------------
    --------------------------------------
    ---7-7--6--7--6-6--7--7--6--7-6-------
    --0-0--0--0--0---0---0--0--0--0-------
    --------------------------------------
     
    A E 
    He's bitter and twisted, he knows what he wants
    F#m E 
    He wants to be loved and he wants to belong
    A E 
    He wants us to listen, he wants us to weep
    F#m E 
    He was a stupid baby who turned into a powerful freak
     
     
     
    CORO FIL1
    G G D
    But how do you? ----------------------------------
    Dsus4 A5 ----------------------------------
    How do you? ---12/11--9----12-11/9--7---------
    Asus2/A ----------------------------------
    How do you? -10/9--7-----10-9/7---5-----------
    ----------------------------------
    A E 
    He lives with his mother, but we show him respect
    F#m E E 
    He's a dangerous bigot, but we always forget
    A
    And he's just like his daddy
    Because he cheats on his friends
    F#m
    And he steals and he bullies
    Anyway that he can
     
     
     
    CORO CON FIL 1
    G
    But how do you?
    Dsus4 A5
    How do you?
    Asus2/A
    How do you?
     
     
     
     
    Stop whispering 
    Transcita por Daniel Rodriguez 
    (Quena284@hotmail.com)
     
    Acordes:
    G:320033
    D:X00230
     
    Esta cancion es muy facil solamnete arpegea los acordes
    y coloca los efectos adecuados.
     
    D G D G
    And the wise men say I don't want to hear your voice
    D G D G
    And the thin men say I don't want to hear your voice
    D G D G
    And they're cursin' me and they won't let me be
    D G
    There's nothing to say
    D G
    There's nothing to do
    CORO
    D G D G
    Stop whispering... Start shouting
    D G D G
    Stop whispering... Start shouting
     
     
    Verso 2: 
    D G D G
    And my mother say we spit on you son some more 
    D G D G
    And the building say we spit on your face some more 
    D G D G
    And the feeling is that there's something wrong
    D G D G
    'Cause I can't find the words and I can't find the songs
     
     
    CORO
    D G D G
    Stop whispering... Start shouting
    D G D G
    Stop whispering... Start shouting
    D G D G
    ------------------------------------
    ------------------------------------
    -------11/12-6-6/7-7--11-11/12------
    ------------------------------------
    ------9/10--4-4/5-5--9-9/10---------
    ------------------------------------
     
     
     
    D G D G
    Dear sir, I've a complaint Dear sir, I've a complaint
    D G D G
    Can't remember what it is Doesn't matter anyway
    D G
    Doesn't matter anyway
    D G D G
    It's not a word It's not a word 
     
    CORO:
    D G D G
    Stop whispering Stop whispering
    D G D G
    Stop whispering Stop whispering
    D G
    Start shouting
     
    ES TODO 
    TE ACONSEJO QUE ELABORES TUS PROPIOS ARREGLOS
     
     
     
    Thinking About You 
    Transcrita por Daniel Rodriguez
     
     
     
    G C G C G 
    Been thinkin 'bout you, your records up here
    G C G C F#/D 
    Your eyes on my wall, your teeth are over there
    Em F#/D G 
    But I'm still no one, and you're a star
    C G 
    What do you care
     
     
    G C G C G 
    Been thinkin 'bout you, and there's no rest
    G C G C F#/D 
    Should I still love you, still see you in bed
    Em F#/D G 
    But I'm playin' with myself, what do you care
    C G
    When the other men are far far better
     
     
    C C C
    All the things you got, all the things you need 
    C C C Em
    I bought you cigarettes, I'll bribe the company
    C C C
    To come and see you, honey
     
     
    G C G C G 
    Been thinkin 'bout you, so how can you sleep
    G C G C F#/D 
    These people aren't your friends, they're paid to kiss your feet
    Em F#/D G 
    But they don't know what I know, why should you care
    C G
    When I'm not there
     
     
    G C G C G 
    Been thinkin 'bout you, and there's no rest
    G C G C F#/D 
    Should I still love you, still see you in bed
    Em F#/D G 
    But I'm playin' with myself, what do you care
    C G
    When I'm not there
     
     
    este arreglo en el intermedio
    con tremolo y chorus
    ---8---8----7-------------7--
    5----5---5-----5---5---------
    -----------7-----7---7-------
    -----------------------------
    -----------------------------
    -----------------------------
     
    C C C C C
    All the things you got, you'll never need 
    C C C C Em C
    All the things you got, I'm planning to bleed to,
    G
    Please you
     
     
    Been thinkin' bout you
     
     
     
     
    Ripcord
    Transcrita por Daniel Rodriguez
    (Quena284@hotmail.com)
     
    Acordes:
    G:320033
    D:x00230
    A:X02220
    Dsus4:x00232
    C#:466xx
    C:355XX
    B:244XX
    A#:133XX
     
     
    VERSO 1
    G D
    Soul destroyed
    G D
    With clever toys 
    G D G A
    For little boys
    G D G D
    It's inevitable, inevitable
    G D G A
    It's a soul de stroyed
    PRECORO 
    G A D 
    You're free until you drop
    G A D
    You're free 'til you've had enough
    G
    And you don't understand 
    CORO 
    You've no ripcord No ripcord
    D C# C B A#
    --------------------------------------
    --------------------------------------
    -11-11--9--9--10-10--7--7--7P9-7P9----
    12-12-12-12--10-10--10-10--8-8-8-8----
    --------------------------------------
    --------------------------------------
    No ripcord No ripcord
     
     
    VERSO 2
    G D G D
    Aero plane do I mean 
    G D G A
    what I mean?
    G D G D 
    It's inevi table, inevi table,
    G D G A 
    Oh aeroplane
    PRECORO 
    G A D Dsus4 
    A thousand miles an hour
    G A D
    On poli tics and power 
    G
    that you don't understand
     
    CORO 
    You've no ripcord No ripcord
    D C# C B A#
    --------------------------------------
    --------------------------------------
    -11-11--9--9--10-10--7--7--7P9-7P9----
    12-12-12-12--10-10--10-10--8-8-8-8----
    --------------------------------------
    --------------------------------------
    No ripcord No ripcord
     
     
    INTERMEDIO
    G A
    -------------------------------------
    -------------------------------------
    --12-12-6/7-12--12/6-/7--16--14--12--
    -------------------------------------
    10-10--4/5--10-10/4/5--14--12--10----
    -------------------------------------
     
     
    Precoro
    G A D Dsus4 
    The answer to your prayers
    G A D G
    We'll drop you any- where
     
     
    CORO 
    With no ripcord No ripcord
    D C# C B A#
    --------------------------------------
    --------------------------------------
    -11-11--9--9--10-10--7--7--7P9-7P9----
    12-12-12-12--10-10--10-10--8-8-8-8----
    --------------------------------------
    --------------------------------------
    No ripcord No ripcord
     
     
    Es todo...
     
     
    I Can't 
    Transcrita por Daniel Rodriguez
    (Quena284@hotmail.com)
     
    Introducion: (x2)
    Con Delay y Reverb.
    10-10-10-12-12-8h10p8-7h8p7-5h7p5-]---7-8-
    ------------------------------------------
    ------------------------------------------
    ------------------------------------------
    ------------------------------------------
    ------------------------------------------
    G C G/B Am D 
    Please forget the words that I just blurted out
    G C G/B D 
    It wasn't me it was my strange and creeping doubt
    Em Em
    It keeps rattling my cage and there's nothing in this world
    C
    will keep it down
     
    CORO 
    G C Em Am
    Even though I might even though I try I can't 
    G C Em D
    Even though I might even though I try I can't 
     
    Verso 2 
    G C G/B D D
    So many things that keep that keep me underground
    G C G/B D D
    So many words that I that I can never find
    Em Em
    If you give up on me now I'll be gutted like
    C
    I've never been before
     
    Intermedio: 
    G C D D G C Bm D
    -3--3--0----0-----3--3--2-----0------
    -3--3--3----3-----3--3--3-----3------
    -0--0--2-5b-2--5b-0--0--4--5b-2-5b---
    -0--2--0----0-----0--2--4-----0------
    -2--3-------------2--3--2------------
    -3----------------3------------------
     
     
    Esto durante el bajo de solo
    ------------------------------
    ------------------------------
    ------------------------------
    -2-4/5-10-9/-2-4/5/-10-9------
    ------------------------------
    ------------------------------
     
     
    G G C C 4x
     
    G C Em Am G C Em Am G x2
    15b-14b-15b-14b--15b14b12b10b-8b-7b5b3b--- 
    18b-17b-18b-17b--18b17b15b13b11b10b8b6b---
    ------------------------------------------
    ------------------------------------------
    ------------------------------------------

    ------------------------------------------



    VÍDEOS DE DIRECTOS
    Archivo histórico de IndyRock Magazine



    News - Noticias -todo sobre Radiohead
    GALERÍA DE FOTOS * RADIOHEAD * DIRECTOS
    TEMAS CON TABS en IndyRock * Radiohead

    .


    --
     
    Copyright IndyRock ©
    TODOS LOS DERECHOS RESERVADOS:
    Queda prohibida la reproducción, distribución, puesta a disposición, comunicación pública y utilización total o parcial, de los contenidos de esta web...
    Leer más y Política de privacidad
     
    Contenidos informativos
    Agenda de conciertos
    Concursos
    Noticias
    Productoras
    Tablón de anuncios... y + Más

    Revista electrónica creada en 1997
    Home * Portada
    Servicios publicitarios
    Créditos | Qué es IndyRock
    info@indyrock.es

    Naturaleza  y divulgación científica
    waste.ideal.es
    Dirección y edición
    waste@diarioideal.es